Oops, an error
Loading. Please wait.

Zombie Bass Tab

version 1
version 1

Whole song

Interactive

12,422 views 3 this week
no commentswrite comment
1 2 3 4 5
x 6
add to favorites
launch autoscroll
font size
0
reset
guitar tuner
Autoscroll
slow
fast
+/-
esc
set tempo
stop
Help us to improve Ultimate-Guitar.com Take our survey!
×
Author
Difficulty
intermediate
Standard Tuning
Tabbed by rhiannonrockz

This is just a basic tabbing because there are no other bass tabs for this amazing song. 
will be the first song that my band cover so I thought I’d do it by ear, I think this 
pretty good and it's the first tab I've done so yahhh :)
Comment if any problems or whatever

Verse 1 (I'm not listening to you...):

G|----------------------------------------------------------------------|
D|----------------------------------------------------------------------|
A|----------3-3-3-3-3---------------------------------------------------|
E|---------------------------5-5-5-5-5----------------------------------|

G|----------------------------------------------------------------------|
D|----------------------------------------------------------------------|
A|----------------------------------------------------------------------|
E|--0-0-0-0-0-0-0-0-2-2-2-2-3-3-3-3----0-0-0-0-0-0-0-0-2-2-2-2-3-3-3-3--|


G|----------------------------------------------------------------------|
D|----------------------------------------------------------------------|
A|----------3-3-3-3-3---------------------------------------------------|
E|---------------------------5-5-5-5-5----------------------------------|

G|----------------------------------------------------------------------|
D|----------------------------------------------------------------------|
A|----------------------------------------------------------------------|
E|--0-0-0-0-0-0-0-0-2-2-2-2-3-3-3-3----0-0-0-0-0-0-0-0-2-2-2-2-3-3-3-3--|

Pre-chorus (Two thousand years I've been awake...):

G|----------------------------------------------------------------------|
D|----------------------------------------------------------------------|
A|----------3-3-3-3-3---------------------------------------------------|
E|---------------------------5-5-5-5-5----------------------------------|

Chorus (To all of you who've wronged me...):

G|----------------------------------------------------------------------|
D|----------------------------------------------------------------------|
A|-----------------------------------3-3-3-3-3-3-3-3-3-3-3-3-3-3-3-3----|
E|--0-0-0-0-0-0-0-0-2-2-2-2-3-3-3-3-------------------------------------|


G|----------------------------------------------------------------------|
D|----------------------------------------------------------------------|
A|--0-0-0-0-0-0-0-0-0-0-0-0-0-0-0-0--2-2-2-2-2-2-2-2-2-2-2-2-2-2-2-2----|
E|----------------------------------------------------------------------|


G|----------------------------------------------------------------------|
D|----------------------------------------------------------------------|
A|-----------------------------------3-3-3-3-3-3-3-3-3-3-3-3-2-2-2-2----|
E|--0-0-0-0-0-0-0-0-2-2-2-2-3-3-3-3-------------------------------------|


G|----------------------------------------------------------------------|
D|----------------------------------------------------------------------|
A|--0-0-0-0-0-0-0-0-0-0-0-0-0-0-0-0--2-2-2-2-2-2-2-2-2-2-2-2-2-2-2-2----|
E|----------------------------------------------------------------------|


G|--------------------------------------------|
D|--------------------------------------------|
A|--3-3-3-3--------3-3-5-5-5-5--------5-5-----|
E|-----------------------------------------0~~| <-- let ring

Verse 2 (Blow the smoke right off the tubes...):

G|----------------------------------------------------------------------|
D|----------------------------------------------------------------------|
A|----------3-3-3-3-3---------------------------------------------------|
E|---------------------------5-5-5-5-5----------------------------------|

G|----------------------------------------------------------------------|
D|----------------------------------------------------------------------|
A|----------------------------------------------------------------------|
E|--0-0-0-0-0-0-0-0-2-2-2-2-3-3-3-3----0-0-0-0-0-0-0-0-2-2-2-2-3-3-3-3--|


G|----------------------------------------------------------------------|
D|----------------------------------------------------------------------|
A|----------3-3-3-3-3---------------------------------------------------|
E|---------------------------5-5-5-5-5----------------------------------|

G|----------------------------------------------------------------------|
D|----------------------------------------------------------------------|
A|----------------------------------------------------------------------|
E|--0-0-0-0-0-0-0-0-2-2-2-2-3-3-3-3----0-0-0-0-0-0-0-0-2-2-2-2-3-3-3-3--|


Pre-chorus (And two thousand years I've been awake...):

G|----------------------------------------------------------------------|
D|----------------------------------------------------------------------|
A|----------3-3-3-3-3---------------------------------------------------|
E|---------------------------5-5-5-5-5----------------------------------|

Chorus (Dear all of you who've wronged me...):

G|----------------------------------------------------------------------|
D|----------------------------------------------------------------------|
A|-----------------------------------3-3-3-3-3-3-3-3-3-3-3-3-3-3-3-3----|
E|--0-0-0-0-0-0-0-0-2-2-2-2-3-3-3-3-------------------------------------|


G|----------------------------------------------------------------------|
D|----------------------------------------------------------------------|
A|--0-0-0-0-0-0-0-0-0-0-0-0-0-0-0-0--2-2-2-2-2-2-2-2-2-2-2-2-2-2-2-2----|
E|----------------------------------------------------------------------|


G|----------------------------------------------------------------------|
D|----------------------------------------------------------------------|
A|-----------------------------------3-3-3-3-3-3-3-3-3-3-3-3-2-2-2-2----|
E|--0-0-0-0-0-0-0-0-2-2-2-2-3-3-3-3-------------------------------------|


G|----------------------------------------------------------------------|
D|----------------------------------------------------------------------|
A|--0-0-0-0-0-0-0-0-0-0-0-0-0-0-0-0--2-2-2-2-2-2-2-2-2-2-2-2-2-2-2-2----|
E|----------------------------------------------------------------------|


G|--------------------------------------------|
D|--------------------------------------------|
A|--3-3-3-3--------3-3-5-5-5-5--------5-5-----|
E|-----------------------------------------0~~| <-- let ring

Breakdown (Deaddd...):

G|--------------------------------------------|
D|--------------------------------------------|
A|--3-3-3-3--------3-3-5-5-5-5--------5-5-----|
E|-----------------------------------------0~~| <-- let ring


G|--------------------------------------------|
D|--------------------------------------------|
A|--3-3-3-3--------3-3-5-5-5-5--------5-5-----|
E|-----------------------------------------0~~| <-- let ring


G|--------------------------------------------|
D|--------------------------------------------|
A|--3-3-3-3--------3-3-5-5-5-5--------5-5-----|
E|--------------------------------------------|


G|--------------------------------------------|
D|--------------------------------------------|
A|--------------------------------------------|
E|--5-5-5-5-5-5-5-5-5-5-5-5-5-5-5-5-0~~-------| <-- let ring itself out


Chorus 3 (To all of you who've wronged me...):

I don’t play the bass part in this bit until later when it comes in with-
(Fall on my head!)

G|--------------------------------------------|
D|--------------------------------------------|
A|--------------------------------------------|
E|-----7-7-7-7-7-7-7-7-7-7-7-7-7-7-7-7--------|


G|----------------------------------------------------------------------|
D|----------------------------------------------------------------------|
A|-----------------------------------3-3-3-3-3-3-3-3-3-3-3-3-2-2-2-2----|
E|--0-0-0-0-0-0-0-0-2-2-2-2-3-3-3-3-------------------------------------|


G|----------------------------------------------------------------------|
D|----------------------------------------------------------------------|
A|--0-0-0-0-0-0-0-0-0-0-0-0-0-0-0-0--2-2-2-2-2-2-2-2-2-2-2-2-3-3-3-3-0~~| <-- I like to 
this ring even though it's not on the recording
E|----------------------------------------------------------------------|
Suggest correction
comments
print report bad tab
guest
You may want to rate the tab now too:
select rating
Wanna post a correction for this tab? Suggest correction