Oops, an error
Loading. Please wait.

Come See Me bass

2,017 views 1 this week
no commentswrite comment
1 2 3 4 5
3 more votes to show rating
add to favorites
×
Save as Personal and add changes to this tab that will be seen only by you. Learn more ›
×
You can save this tab as Personal to edit and correct it or add notes. All changes will be seen only by you. Learn more »
launch autoscroll
font size
0
reset
guitar tuner
edit
Autoscroll
slow
fast
+/-
esc
set tempo
stop
Author
Come See Me
The Pretty Things
Written by Sidney Barnes, J.J. Jackson and Pierre Tubbs; released as a 
single with "L.S.D." as the B-side, and on the album "Get The Picture?"

Intro:
G|------ ------ ------ ------|------ ------ ------ ------|
D|5------5------5------5-----|5-----/3-----/3-----/3-----|
A|---------------------------|---------------------------|
E|---------------------------|---------------------------|



G|------ ------ ------ ------|------ ------ ------ ------|
D|---------------------------|---------------------------|
A|3------3------1------1-----|---------------------------|
E|-------------------------0h|1------1------3------3-----|



G|------ ------ ------ ------|------ ------ ------ ------|
D|---------------------------|---------------------------|
A|3------3------1------1-----|---------------------------|
E|-------------------------0h|1------1------3------3-----|



G|------ ------ ------ ------|------ ------ ------ ------|
D|---------------------------|---------------------------|
A|3------3------1------1-----|---------------------------|
E|-------------------------0h|1------1------3------3-----|



G|------ ------ ------ ------|------ ------ ------ ------|
D|---------------------------|---------------------------|
A|3------3------1------1-----|---------------------------|
E|-------------------------0h|1------1------3------3-----|
                                            If you wanna

Verse:
G|------ ------ ------ ------|------ ------ ------ ------|
D|---------------------------|---------------------------|
A|3------3------1------1-----|---------------------------|
E|-------------------------0h|1------1------3------3-----|
  love,  ba     -      by,                  come   see me,


G|------ ------ ------ ------|------ ------ ------ ------|
D|---------------------------|---------------------------|
A|3------3------1------1-----|---------------------------|
E|-------------------------0h|1------1------3------3-----|
                                            If you wanna


G|------ ------ ------ ------|------ ------ ------ ------|
D|---------------------------|---------------------------|
A|3------3------1------1-----|---------------------------|
E|-------------------------0h|1------1------3------3-----|
  hug,   ba     -      by,                  come   see me,


G|------ ------ ------ ------|------ ------ ------ ------|
D|---------------------------|---------------------------|
A|3------3------1------1-----|---------------------------|
E|-------------------------0h|1------1------3------3-----|
                                            When you need


G|------ ------ ------ ------|------ ------ ------ ------|
D|3------3------1------1-----|-------------------------1h|
A|-------------------------0h|1------1------3------3-----|
E|---------------------------|---------------------------|
  some - one                             to see you    right,


G|------ ------ ------ ------|------ ------ ------ ------|
D|3------3------1------1-----|-------------------------1h|
A|-------------------------0h|1------1------3------3-----|
E|---------------------------|---------------------------|
                                            And you need


G|------ ------ ------ ------|------ ------ ------ ------|
D|3------3------1------1-----|---------------------------|
A|-------------------------0h|1------1------3------3-----|
E|---------------------------|---------------------------|
  some - one                             to make you feel right,


G|------ ------ ------ ------|------ ------ ------ ------|
D|5------5------5------5-----|5--------------------------|
A|---------------------------|---------------------------|
E|---------------------------|---------------------------|
                                     Baby,  I'm your   man,

Refrain:
G|------ ------ ------ ------|------ ------ ------ ------|
D|---------------------------|---------------------------|
A|3------3------1------1-----|---------------------------|
E|-------------------------0h|1------1------3------3-----|
                                     baby,  I'm your   man,


G|------ ------ ------ ------|------ ------ ------ ------|
D|---------------------------|---------------------------|
A|3------3------1------1-----|---------------------------|
E|-------------------------0h|1------1------3------3-----|
                                     Baby,  I'm your   man,


G|------ ------ ------ ------|------ ------ ------ ------|
D|---------------------------|---------------------------|
A|3------3------1------1-----|---------------------------|
E|-------------------------0h|1------1------3------3-----|
                                     baby,  I'm your   man.


G|------ ------ ------ ------|------ ------ ------ ------|
D|---------------------------|---------------------------|
A|3------3------1------1-----|---------------------------|
E|-------------------------0h|1------1------3------3-----|
                                                I'm    a-


G|------ ------ ------ ------|------ ------ ------ ------|
D|---------------------------|---------------------------|
A|3------3------1------1-----|---------------------------|
E|-------------------------0h|1------1------3------3-----|
  greater than  seventh    son,          I've   got    an
             the

G|------ ------ ------ ------|------ ------ ------ ------|
D|---------------------------|---------------------------|
A|3------3------1------1-----|---------------------------|
E|-------------------------0h|1------1------3------3-----|
  an  -  swer to every  -  one,             I'm your   man,


G|------ ------ ------ ------|------ ------ ------ ------|
D|---------------------------|---------------------------|
A|3------3------1------1-----|---------------------------|
E|-------------------------0h|1------1------3------3-----|
         ba     -      by,                  I'm your   man.


G|------ ------ ------ ------|------ ------ ------ ------|
D|---------------------------|---------------------------|
A|3------3------1------1-----|---------------------------|
E|-------------------------0h|1--------------------------|
                                         You don't got to

Verse:
G|------ ------ ------ ------|------ ------ ------ ------|
D|---------------------------|---------------------------|
A|3------3------1------1-----|---------------------------|
E|-------------------------0h|1------1------3------3-----|
  pop,   ba     -      by,               you can't be  free,


G|------ ------ ------ ------|------ ------ ------ ------|
D|---------------------------|---------------------------|
A|3------3------1------1-----|---------------------------|
E|-------------------------0h|1------1------3------3-----|
                                         You just  gotta


G|------ ------ ------ ------|------ ------ ------ ------|
D|---------------------------|---------------------------|
A|3------3------1------1-----|---------------------------|
E|-------------------------0h|1------1------3------3-----|
  ask,   ba     -      by,               you'll get it from me,


G|------ ------ ------ ------|------ ------ ------ ------|
D|---------------------------|---------------------------|
A|3------3------1------1-----|---------------------------|
E|-------------------------0h|1------1------3------3-----|
                                            When you're feeling


G|------ ------ ------ ------|------ ------ ------ ------|
D|3------3------1------1-----|-------------------------1h|
A|-------------------------0h|1------1------3------3-----|
E|---------------------------|---------------------------|
  lone - ly,                             you got it so bad,


G|------ ------ ------ ------|------ ------ ------ ------|
D|3------3------1------1-----|-------------------------1h|
A|-------------------------0h|1------1------3------3-----|
E|---------------------------|---------------------------|
                                            You come to see me,


G|------ ------ ------ ------|------ ------ ------ ------|
D|3------3------1------1-----|---------------------------|
A|-------------------------0h|1------1------3------3-----|
E|---------------------------|---------------------------|
                                         I  make you feel glad.


G|------ ------ ------ ------|------ ------ ------ ------|
D|5------5------5------5-----|5--------------------------|
A|---------------------------|---------------------------|
E|---------------------------|---------------------------|
                                     Baby,  I'm your   man,

Refrain:
G|------ ------ ------ ------|------ ------ ------ ------|
D|---------------------------|---------------------------|
A|3------3------1------1-----|---------------------------|
E|-------------------------0h|1------1------3------3-----|
                                     baby,  I'm your   man,
        (I'm           your man)

G|------ ------ ------ ------|------ ------ ------ ------|
D|---------------------------|---------------------------|
A|3------3------1------1-----|---------------------------|
E|-------------------------0h|1------1------3------3-----|
                                     Baby,  I'm your   man,
        (I'm           your man)

G|------ ------ ------ ------|------ ------ ------ ------|
D|---------------------------|---------------------------|
A|3------3------1------1-----|---------------------------|
E|-------------------------0h|1------1------3------3-----|
                                     baby,  I'm your   man.
        (I'm           your man)

G|------ ------ ------ ------|------ ------ ------ ------|
D|---------------------------|---------------------------|
A|3------3------1------1-----|---------------------------|
E|-------------------------0h|1------1------3------3-----|
                                                You're gonna
        (I'm           your man)

G|------ ------ ------ ------|------ ------ ------ ------|
D|---------------------------|---------------------------|
A|3------3------1------1-----|---------------------------|
E|-------------------------0h|1------1------3------3-----|
  be     my     pussy  -   cat,          I      wan -  na


G|------ ------ ------ ------|------ ------ ------ ------|
D|---------------------------|---------------------------|
A|3------3------1------1-----|---------------------------|
E|-------------------------0h|1------1------3------3-----|
  know   just   where it's at,              I'm your   man,


G|------ ------ ------ ------|------ ------ ------ ------|
D|---------------------------|---------------------------|
A|3------3------1------1-----|---------------------------|
E|-------------------------0h|1------1------3------3-----|
         ba     -      by,                  I'm your   man.
        (I'm           your man)

G|------ ------ ------ ------|------ ------ ------ ------|
D|---------------------------|---------------------------|
A|3------3------1------1-----|---------------------------|
E|-------------------------0h|1--------------------------|

        (I'm           your man)
Break (solo):
G|------ ------ ------ ------|------ ------ ------ ------|
D|---------------------------|---------------------------|
A|3------3-------------1-----|---------------------------|
E|--------------3------------|1------1------3------3-----|



G|------ ------ ------ ------|------ ------ ------ ------|
D|---------------------------|---------------------------|
A|3------3------1------1-----|---------------------------|
E|-------------------------0h|1------1------3------3-----|



G|------ ------ ------ ------|------ ------ ------ ------|
D|---------------------------|---------------------------|
A|3------3------1------1-----|---------------------------|
E|-------------------------0h|1------1------3------3-----|



G|------ ------ ------ ------|------ ------ ------ ------|
D|5------5------5------5-----|5--------------------------|
A|---------------------------|---------------------------|
E|---------------------------|---------------------------|
                                     Baby,  I'm your   man,

Refrain:
G|------ ------ ------ ------|------ ------ ------ ------|
D|---------------------------|---------------------------|
A|3------3------1------1-----|---------------------------|
E|-------------------------0h|1------1------3------3-----|
                                     baby,  I'm your   man,
        (I'm           your man)

G|------ ------ ------ ------|------ ------ ------ ------|
D|---------------------------|---------------------------|
A|3------3------1------1-----|---------------------------|
E|-------------------------0h|1------1------3------3-----|
                                     Baby,  I'm your   man,
        (I'm           your man)

G|------ ------ ------ ------|------ ------ ------ ------|
D|---------------------------|---------------------------|
A|3------3------1------1-----|---------------------------|
E|-------------------------0h|1------1------3------3-----|
                                     baby,  I'm your   man.
        (I'm           your man)

G|------ ------ ------ ------|------ ------ ------ ------|
D|---------------------------|---------------------------|
A|3------3------1------1-----|---------------------------|
E|-------------------------0h|1------1------3------3-----|
                                                I'm    a-
        (I'm           your man)

G|------ ------ ------ ------|------ ------ ------ ------|
D|---------------------------|---------------------------|
A|3------3------1------1-----|---------------------------|
E|-------------------------0h|1------1------3------3-----|
  greater than  seventh    son,          Don't  have   to
             the

G|------ ------ ------ ------|------ ------ ------ ------|
D|---------------------------|---------------------------|
A|3------3------1------1-----|---------------------------|
E|-------------------------0h|1------1------3------3-----|
  an  -  swer to a- ny  -  one,          You're gon -  na  


G|------ ------ ------ ------|------ ------ ------ ------|
D|---------------------------|---------------------------|
A|3------3------1------1-----|---------------------------|
E|-------------------------0h|1------1------3------3-----|
  be     my     pussy  -   cat,          You've got    to


G|------ ------ ------ ------|------ ------ ------ ------|
D|---------------------------|---------------------------|
A|3------3------1------1-----|---------------------------|
E|-------------------------0h|1------1------3------3-----|
  show   just   where it's at,              I'm your   man,

Outro:
G|------ ------ ------ ------|------ ------ ------ ------|
D|---------------------------|---------------------------|
A|3------3------1------1-----|---------------------------|
E|-------------------------0h|1------1------3------3-----|
                                            I'm your   man,
        (I'm           your man)
repeat and fade out...

Please e-mail me for any corrections, or write a comment.
Suggest correction
Creating personal tab
Creating personal tab
You can edit any tab online and save it as your Personal.

You can edit, replace or remove any tab part or add personal notes – all changes will be seen only by you.

Personal tabs can be accessed anytime from any device, even offline.
Learn more »
Give kudos to tab author, rate the tab!
1 2 3 4 5
comments
print report bad tab
guest
You may want to rate the tab now too:
select rating
Wanna post a correction for this tab? Suggest correction