Oops, an error
Loading. Please wait.

Jj tab

313 views 9 this week
1 commentread comment
1 2 3 4 5
2 more votes to show rating
add to favorites
×
Save as Personal and add changes to this tab that will be seen only by you. Learn more ›
×
You can save this tab as Personal to edit and correct it or add notes. All changes will be seen only by you. Learn more »
launch autoscroll
font size
0
reset
how to read this tab
guitar tuner
edit
Autoscroll
slow
fast
+/-
esc
set tempo
stop
About this tab version
Lead guitar only, full song. Was this info helpful? Yes No
[Verse 1]
e|----------------------------|----------------------------|
B|----------------------------|----------------------------|
G|----------------------------|----------------------------|
D|--------------6--6--5-------|--3-----3--3-----3--3-------|
A|--------5-------------------|----------------------------|
E|--6-------------------------|----------------------------|

e|----------------------------|----------------------------|
B|----------------------------|----------------------------|
G|----------------------------|----------------------------|
D|--4-----4--4-----4--4-------|--3-----3--3-----3--3-------|
A|----------------------------|----------------------------|
E|----------------------------|----------------------------|

     When I met you you were just a bad..
e|----------------------------|----------------------------|
B|----------------------------|----------------------------|
G|----------------------------|----------------------------|
D|--------------6-----5-------|--3-----3--3-----3--3-------|
A|--------5-------------------|----------------------------|
E|--6-------------------------|----------------------------|

     attitude... You
e|----------------------------|----------------------------|
B|----------------------------|----------------------------|
G|----------------------------|----------------------------|
D|--4-----4--4-----4--4-------|--3-----3--3-----3--3-------|
A|----------------------------|----------------------------|
E|----------------------------|----------------------------|

     dated a model one time she stuck her..
e|----------------------------|----------------------------| 
B|----------------------------|----------------------------| 
G|----------------------------|----------------------------| 
D|--6-------------------------|----------------------------| 
A|-------5--------------------|----------------------------| 
E|------------6br-------------|----------------------------| 
               (Bend and release 1/2)

     finger in a light socket... About
e|----------------------------|----------------------------| 
B|----------------------------|----------------------------| 
G|----------------------------|----------------------------| 
D|------------4br-------------|----------------------------| 
A|-------3--------------------|----------------------------| 
E|--4-------------------------|----------------------------| 

     things like that people were always so
e|----------------------------|----------------------------| 
B|----------------------------|----------------------------| 
G|----------------------------|----------------------------| 
D|--6-------------------------|----------------------------| 
A|-------5--------------------|----------------------------| 
E|------------6br-------------|----------------------------| 

     mean and rude
e|----------------------------|----------------------------| 
B|----------------------------|----------------------------| 
G|----------------------------|----------------------------| 
D|------------4br-------------|----------------------------| 
A|-------3--------------------|----------------------------| 
E|--4-------------------------|----------------------------| 

[Bridge] 
(0:22)
     But I always felt like, 'oh Veronica..
e|----------------------------|----------------------------| 
B|----------------------------|----------------------------| 
G|----------------------------|----------------------------| 
D|----------------------------|----------------------------|
A|----------------------------|----------------------------| 
E|--6-------------------------|--4-------------------------| 

     ..baby, I think..
e|----------------------------|----------------------------| 
B|----------------------------|----------------------------| 
G|----------------------------|----------------------------| 
D|----------------------------|----------------------------|
A|--3-------------------------|----------------------------| 
E|----------------------------|--3-------------------------| 

     I kinda know what you
e|----------------------------|----------------------------| 
B|----------------------------|----------------------------| 
G|----------------------------|----------------------------| 
D|----------------------------|----------------------------|
A|----------------------------|----------------------------| 
E|--6-------------------------|--4-------------------------| 

     mean..'
e|----------------------------|----------------------------| 
B|----------------------------|----------------------------| 
G|----------------------------|----------------------------| 
D|----------------------------|----------------------------|
A|--3-------------------------|----------------------------| 
E|----------------------------|--3-------------------------| 

[Chorus] 
(0:32)
                                      (Palm muted)
e|----------------------------|----------------------------|
B|----------------------------|----------------------------|
G|----------------------------|----------------------------|
D|--PM------------------------|----------------------------|
A|--8--8--8-----8--8--8-------|--6--6--6-----6--6--6-------|
E|--6--6--6-----6--6--6-------|--4--4--4-----4--4--4-------|

                                      (Palm muted)
e|----------------------------|----------------------------|
B|----------------------------|----------------------------|
G|--PM------------------------|----------------------------|
D|--5--5--5-----5--5--5-------|----------------------------|
A|--3--3--3-----3--3--3-------|--5--5--5-----5--5--5-------|
E|----------------------------|--3--3--3-----3--3--3-------|

                                      (Palm muted)
e|----------------------------|----------------------------|
B|----------------------------|----------------------------|
G|----------------------------|----------------------------|
D|--PM------------------------|----------------------------|
A|--8--8--8-----8--8--8-------|--6--6--6-----6--6--6-------|
E|--6--6--6-----6--6--6-------|--4--4--4-----4--4--4-------|

                                      (Palm muted)
e|----------------------------|----------------------------|
B|----------------------------|----------------------------|
G|--PM------------------------|----------------------------|
D|--5--5--5-----5--5--5-------|----------------------------|
A|--3--3--3-----3--3--3-------|--5--5--5-----5--5--5-------|
E|----------------------------|--3--3--3-----3--3--3-------|

[Verse 2] 
(0:43) 
(Same as verse 1)
     I can't believe I always had
e|----------------------------|----------------------------|
B|----------------------------|----------------------------|
G|----------------------------|----------------------------|
D|--------------6--6--5-------|--3-----3--3-----3--3-------|
A|--------5-------------------|----------------------------|
E|--6-------------------------|----------------------------|

     such awful taste.. You
e|----------------------------|----------------------------|
B|----------------------------|----------------------------|
G|----------------------------|----------------------------|
D|--4-----4--4-----4--4-------|--3-----3--3-----3--3-------|
A|----------------------------|----------------------------|
E|----------------------------|----------------------------|

     were just a rich kid low life in a very big
e|----------------------------|----------------------------|
B|----------------------------|----------------------------|
G|----------------------------|----------------------------|
D|--------------6-----5-------|--3-----3--3-----3--3-------|
A|--------5-------------------|----------------------------|
E|--6-------------------------|----------------------------|

     jacket in a very big way
e|----------------------------|----------------------------|
B|----------------------------|----------------------------|
G|----------------------------|----------------------------|
D|--4-----4--4-----4--4-------|--3-----3--3-----3--3-------|
A|----------------------------|----------------------------|
E|----------------------------|----------------------------|

     The most interesting thing about..
e|----------------------------|----------------------------| 
B|----------------------------|----------------------------| 
G|----------------------------|----------------------------| 
D|--6-------------------------|----------------------------| 
A|-------5--------------------|----------------------------| 
E|------------6br-------------|----------------------------| 
               (Bend and release 1/2)

     You, was that you smoked,
e|----------------------------|----------------------------| 
B|----------------------------|----------------------------| 
G|----------------------------|----------------------------| 
D|------------4br-------------|----------------------------| 
A|-------3--------------------|----------------------------| 
E|--4-------------------------|----------------------------| 

     Parliaments, the babiest 
e|----------------------------|----------------------------| 
B|----------------------------|----------------------------| 
G|----------------------------|----------------------------| 
D|--6-------------------------|----------------------------| 
A|-------5--------------------|----------------------------| 
E|------------6br-------------|----------------------------| 

     cigarettes
e|----------------------------|----------------------------| 
B|----------------------------|----------------------------| 
G|----------------------------|----------------------------| 
D|------------4br-------------|----------------------------| 
A|-------3--------------------|----------------------------| 
E|--4-------------------------|----------------------------| 

[Bridge] 
(1:04)
     I thought I was a cow-
e|----------------------------|----------------------------| 
B|----------------------------|----------------------------| 
G|----------------------------|----------------------------| 
D|----------------------------|----------------------------|
A|----------------------------|----------------------------| 
E|--6-------------------------|--4-------------------------| 

     boy because
e|----------------------------|----------------------------| 
B|----------------------------|----------------------------| 
G|----------------------------|----------------------------| 
D|----------------------------|----------------------------|
A|--3-------------------------|----------------------------| 
E|----------------------------|--3-------------------------| 

     I, smoked Reds! Smoked Reds!
e|----------------------------|----------------------------| 
B|----------------------------|----------------------------| 
G|----------------------------|----------------------------| 
D|----------------------------|----------------------------|
A|----------------------------|----------------------------| 
E|--6-------------------------|--4-------------------------| 

     Smoked Reds! Smoked Reds!
e|----------------------------|----------------------------| 
B|----------------------------|----------------------------| 
G|----------------------------|----------------------------| 
D|----------------------------|----------------------------|
A|--3-------------------------|----------------------------| 
E|----------------------------|--3-------------------------| 

[Chorus] 
(1:15)
     I thought I was a cow-
e|----------------------------|----------------------------|
B|----------------------------|----------------------------|
G|----------------------------|----------------------------|
D|--PM------------------------|------------(palm muted)----|
A|--8--8--8-----8--8--8-------|--6--6--6-----6--6--6-------|
E|--6--6--6-----6--6--6-------|--4--4--4-----4--4--4-------|

     boy 'cause
e|----------------------------|----------------------------|
B|----------------------------|----------------------------|
G|--PM------------------------|------------(palm muted)----|
D|--5--5--5-----5--5--5-------|----------------------------|
A|--3--3--3-----3--3--3-------|--5--5--5-----5--5--5-------|
E|----------------------------|--3--3--3-----3--3--3-------|

     I, smoked Reds! Smoked Reds!
e|----------------------------|----------------------------|
B|----------------------------|----------------------------|
G|----------------------------|----------------------------|
D|--PM------------------------|------------(palm muted)----|
A|--8--8--8-----8--8--8-------|--6--6--6-----6--6--6-------|
E|--6--6--6-----6--6--6-------|--4--4--4-----4--4--4-------|

     Smoked Reds! Smoked Reds! Smoked Reds!
e|----------------------------|----------------------------|
B|----------------------------|----------------------------|
G|--PM------------------------|------------(palm muted)----|
D|--5--5--5-----5--5--5-------|----------------------------|
A|--3--3--3-----3--3--3-------|--5--5--5-----5--5--5-------|
E|----------------------------|--3--3--3-----3--3--3-------|

[Middle 8] 
(1:26)
e|----------------------------|----------------------------|
B|----------------------------|----------------------------|
G|----------------------------|----------------------------|
D|--5-------------------------|--5-------------------------|
A|--5-------------------------|--6-------------------------|
E|--6-------------------------|--6-------------------------|

e|----------------------------|----------------------------|
B|----------------------------|----------------------------|
G|----------------------------|----------------------------|
D|--8-------------------------|----------------------------|
A|--8-------------------------|----------------------------|
E|--6-------------------------|----------------------------|

e|----------------------------|----------------------------|
B|----------------------------|----------------------------|
G|----------------------------|----------------------------|
D|--5-------------------------|--5-------------------------|
A|--5-------------------------|--6-------------------------|
E|--6-------------------------|--6-------------------------|

e|----------------------------|----------------------------|
B|----------------------------|----------------------------|
G|----------------------------|----------------------------|
D|--8-------------------------|----------------------------|
A|--8-------------------------|----------------------------|
E|--6-------------------------|----------------------------|

                  You thought I was
e|----------------------------|----------------------------|
B|----------------------------|----------------------------|
G|----------------------------|----------------------------|
D|--5-------------------------|--5-------------------------|
A|--5-------------------------|--6-------------------------|
E|--6-------------------------|--6-------------------------|

     disgusting
e|----------------------------|----------------------------|
B|----------------------------|----------------------------|
G|----------------------------|----------------------------|
D|--8-------------------------|----------------------------|
A|--8-------------------------|----------------------------|
E|--6-------------------------|----------------------------|

                  You thought I was
e|----------------------------|----------------------------|
B|----------------------------|----------------------------|
G|----------------------------|----------------------------|
D|--5-------------------------|--5-------------------------|
A|--5-------------------------|--6-------------------------|
E|--6-------------------------|--6-------------------------|

     disgusting
e|----------------------------|----------------------------|
B|----------------------------|----------------------------|
G|----------------------------|----------------------------|
D|--8-------------------------|----------------------------|
A|--8-------------------------|----------------------------|
E|--6-------------------------|----------------------------|

[Solo] 
(1:47)
e|----------------------------|----------------------------|
B|----------------------------|----------------------------|
G|----------------------------|----------------------------|
D|--12----12-12-10-10-10p12---|-----12-12-12p10----10/8----|
A|----------------------------|----------------------------|
E|----------------------------|----------------------------|

e|----------------------------|----------------------------|
B|----------------------------|----------------------------|
G|----------------------------|----------------------------|
D|--8-----8-----10-10-10p8----|-----8--8-----10----10/12---|
A|----------------------------|----------------------------|
E|----------------------------|----------------------------|

     All the jock frat boys called you
e|----------------------------|----------------------------|
B|----------------------------|----------------------------|
G|----------------------------|----------------------------|
D|--12----12-12-10-10-10p12---|-----12-12-12p10----10/8----|
A|----------------------------|----------------------------|
E|----------------------------|----------------------------|

     a hipster..
e|----------------------------|----------------------------|
B|----------------------------|----------------------------|
G|----------------------------|----------------------------|
D|--8-----8-----10-10-10p8----|-----8--8-----10----10/12---|
A|----------------------------|----------------------------|
E|----------------------------|----------------------------|

     And I think you liked it, I
e|----------------------------|----------------------------|
B|----------------------------|----------------------------|
G|----------------------------|----------------------------|
D|--12----12----15p12-12p10---|-----10-10----12----10/8----|
A|----------------------------|----------------------------|
E|----------------------------|----------------------------|

     I think you loved it
e|----------------------------|----------------------------|
B|----------------------------|----------------------------|
G|----------------------------|----------------------------|
D|--8-----8-----10-10-10p8----|-----8--8-----10----10/12---|
A|----------------------------|----------------------------|
E|----------------------------|----------------------------|

     I think you loved it
e|----------------------------|----------------------------|
B|----------------------------|----------------------------|
G|----------------------------|----------------------------|
D|--12----12----15p12-12p10---|-----10-10----12----10/8----|
A|----------------------------|----------------------------|
E|----------------------------|----------------------------|

e|----------------------------|----------------------------|
B|----------------------------|----------------------------|
G|----------------------------|----------------------------|
D|--8-----8-----10-10-10p8----|-----8--8-----10----8-------|
A|----------------------------|----------------------------|
E|----------------------------|----------------------------|

[Bridge 3] 
(2:09)
                I wrote a bunch of songs
e|----------------------------|----------------------------| 
B|----------------------------|----------------------------| 
G|----------------------------|----------------------------| 
D|----------------------------|----------------------------|
A|----------------------------|----------------------------| 
E|--6-------------------------|--4-------------------------| 

     for you
e|----------------------------|----------------------------| 
B|----------------------------|----------------------------| 
G|----------------------------|----------------------------| 
D|----------------------------|----------------------------|
A|--3-------------------------|----------------------------| 
E|----------------------------|--3-------------------------| 

                I wrote a bunch of songs
e|----------------------------|----------------------------| 
B|----------------------------|----------------------------| 
G|----------------------------|----------------------------| 
D|----------------------------|----------------------------|
A|----------------------------|----------------------------| 
E|--6-------------------------|--4-------------------------| 

     for you... But you,
e|----------------------------|----------------------------| 
B|----------------------------|----------------------------| 
G|----------------------------|----------------------------| 
D|----------------------------|----------------------------|
A|--3-------------------------|----------------------------| 
E|----------------------------|--3-------------------------| 

[Chorus]
(2:20)
     Never knew
e|----------------------------|----------------------------|
B|----------------------------|----------------------------|
G|----------------------------|----------------------------|
D|--PM------------------------|------------(palm muted)----|
A|--8--8--8-----8--8--8-------|--6--6--6-----6--6--6-------|
E|--6--6--6-----6--6--6-------|--4--4--4-----4--4--4-------|

     and you
e|----------------------------|----------------------------|
B|----------------------------|----------------------------|
G|--PM------------------------|------------(palm muted)----|
D|--5--5--5-----5--5--5-------|----------------------------|
A|--3--3--3-----3--3--3-------|--5--5--5-----5--5--5-------|
E|----------------------------|--3--3--3-----3--3--3-------|

     never.. deserved..
e|----------------------------|----------------------------|
B|----------------------------|----------------------------|
G|----------------------------|----------------------------|
D|--PM------------------------|------------(palm muted)----|
A|--8--8--8-----8--8--8-------|--6--6--6-----6--6--6-------|
E|--6--6--6-----6--6--6-------|--4--4--4-----4--4--4-------|

     them..
e|----------------------------|----------------------------|
B|----------------------------|----------------------------|
G|--PM------------------------|------------(palm muted)----|
D|--5--5--5-----5--5--5-------|----------------------------|
A|--3--3--3-----3--3--3-------|--5--5--5-----5--5--5-------|
E|----------------------------|--3--3--3-----3--3--3-------|

[Outro]
(2:30)
e|----------------------------|----------------------------|
B|----------------------------|----------------------------|
G|----------------------------|----------------------------|
D|----------------------------|----------------------------|
A|--8--8--8-----8--8--8-------|--6--6--6-----6--6--6-------|
E|--6--6--6-----6--6--6-------|--4--4--4-----4--4--4-------|
    
e|----------------------------|----------------------------|
B|----------------------------|----------------------------|
G|----------------------------|----------------------------|
D|--5--5--5-----5--5--5-------|----------------------------|
A|--3--3--3-----3--3--3-------|--5--5--5-----5--5--5-------|
E|----------------------------|--3--3--3-----3--3--3-------|

     Who ever deserves
e|----------------------------|----------------------------|
B|----------------------------|----------------------------|
G|----------------------------|----------------------------|
D|----------------------------|----------------------------|
A|--8--8--8-----8--8--8-------|--6--6--6-----6--6--6-------|
E|--6--6--6-----6--6--6-------|--4--4--4-----4--4--4-------|

     anything anyway
e|----------------------------|----------------------------|
B|----------------------------|----------------------------|
G|----------------------------|----------------------------|
D|--5--5--5-----5--5--5-------|----------------------------|
A|--3--3--3-----3--3--3-------|--5--5--5-----5--5--5-------|
E|----------------------------|--3--3--3-----3--3--3-------|

    What a stupid concept
e|----------------------------|----------------------------|
B|----------------------------|----------------------------|
G|----------------------------|----------------------------|
D|----------------------------|----------------------------|
A|--8--8--8-----8--8--8-------|--6--6--6-----6--6--6-------|
E|--6--6--6-----6--6--6-------|--4--4--4-----4--4--4-------|

     What a stupid concept
e|----------------------------|----------------------------|
B|----------------------------|----------------------------|
G|----------------------------|----------------------------|
D|--5--5--5-----5--5--5-------|----------------------------|
A|--3--3--3-----3--3--3-------|--5--5--5-----5--5--5-------|
E|----------------------------|--3--3--3-----3--3--3-------|

    What a stupid concept
e|----------------------------|----------------------------|
B|----------------------------|----------------------------|
G|----------------------------|----------------------------|
D|----------------------------|----------------------------|
A|--8--8--8-----8--8--8-------|--6--6--6-----6--6--6-------|
E|--6--6--6-----6--6--6-------|--4--4--4-----4--4--4-------|

     What a stupid concept
e|----------------------------|----------------------------|
B|----------------------------|----------------------------|
G|----------------------------|----------------------------|
D|--5--5--5-----5--5--5-------|----------------------------|
A|--3--3--3-----3--3--3-------|--5--5--5-----5--5--5-------|
E|----------------------------|--3--3--3-----3--3--3-------|

e|----------------------------|
B|----------------------------|
G|----------------------------|
D|--0-------------------------|
A|--2-------------------------|
E|----------------------------|


************************************

| br  Bend release
| p   Pull-off
| /   Slide up

************************************

            
            
Suggest correction
Creating personal tab
Creating personal tab
You can edit any tab online and save it as your Personal.

You can edit, replace or remove any tab part or add personal notes – all changes will be seen only by you.

Personal tabs can be accessed anytime from any device, even offline.
Learn more »
Give kudos to tab author, rate the tab!
1 2 3 4 5
comments
print report bad tab
1 comment total.
+1 reply
leoweingut 10 Jun 10, 2017 07:30 AM

Great song, great tab, thanks!

guest
You may want to rate the tab now too:
select rating
Wanna post a correction for this tab? Suggest correction