Oops, an error
Loading. Please wait.

Ill Lay You Down Bass Tab

7 views 1 this week
no commentswrite comment
1 2 3 4 5
3 more votes to show rating
add to favorites
launch autoscroll
font size
0
reset
guitar tuner
Autoscroll
slow
fast
+/-
esc
set tempo
stop
Help us to improve Ultimate-Guitar.com Take our survey!
×
Author
Difficulty
novice
[Intro]
G|--------|-------------|-------------|------------|------------|
D|------0-|-1---3-0---1-|-----0-------|----------1-|-------0--3-|
A|--1-3---|-------------|-3-----1-----|-------3----|-1---1------|
E|--------|-------------|-----------3-|-4---4------|------------|

G|-------------|-------------|------------|--------------3---3-3----|
D|-1---3-0---1-|-----0-------|----------1-|------------3----------0-|
A|-------------|-3-----1-----|-------3----|-1---1-1-1---------------|
E|-------------|-----------3-|-4---4------|-------------------------|

[Verse 1]
G|------------|------------|------------|------------|
D|-1---1-1----|-1---1-1----|----------1-|-------0--3-|
A|----------1-|------------|-------3----|-1---1------|
E|------------|----------3-|-4---4------|------------|

G|-------------|-------------|------------|------------|
D|-1---3-0---1-|-----0-------|----------1-|-------0--3-|
A|-------------|-3-----1-----|-------3----|-1---1------|
E|-------------|-----------3-|-4---4------|------------|

[Verse 2]
G|------------|------------|------------|------------|
D|-1---1-1----|-1---1-1----|----------1-|-------0--3-|
A|----------1-|------------|-------3----|-1---1------|
E|------------|----------3-|-4---4------|------------|

G|-------------|-------------|------------|------------|
D|-1---3-0---1-|-----0-------|----------1-|-------0--3-|
A|-------------|-3-----1-----|-------3----|-1---1------|
E|-------------|-----------3-|-4---4------|------------|

[Chorus]
G|-------------|------------|-------------|--------------|
D|-------------|-------0--3-|-1---3-0-----|--------------|
A|-------------|-1---1------|-----------6-|--------------|
E|-4---4-4---4-|------------|-------------|-4---4-4-4--4-|

G|--------------|------------|-------------|-------------|
D|--------------|-------0--3-|-1---3-0---1-|-----0-------|
A|--------------|-1---1------|-------------|-3-----1-----|
E|-4---4-4-4--4-|------------|-------------|-----------3-|

G|--------------|-----------------|--------------|
D|--------------|-----------------|---------0--3-|
A|--------------|-1-1-1-1-1-1-1-1-|-1-1-1-1------|
E|-4---4-4-4--4-|-----------------|--------------|

G|-------------|-------------|------------|------------| (x2)
D|-1---3-0---1-|-----0-------|----------1-|-------0--3-|
A|-------------|-3-----1-----|-------3----|-1---1------|
E|-------------|-----------3-|-4---4------|------------|

[Verse 3]
G|------------|------------|------------|------------|
D|-1---1-1----|-1---1-1----|----------1-|-------0--3-|
A|----------1-|------------|-------3----|-1---1------|
E|------------|----------3-|-4---4------|------------|

G|-------------|-------------|------------|------------|
D|-1---3-0---1-|-----0-------|----------1-|-------0--3-|
A|-------------|-3-----1-----|-------3----|-1---1------|
E|-------------|-----------3-|-4---4------|------------|

[Verse 4]
G|------------|------------|------------|------------|
D|-1---1-1----|-1---1-1----|----------1-|-------0--3-|
A|----------1-|------------|-------3----|-1---1------|
E|------------|----------3-|-4---4------|------------|

G|-------------|-------------|------------|------------|
D|-1---3-0---1-|-----0-------|----------1-|-------0--3-|
A|-------------|-3-----1-----|-------3----|-1---1------|
E|-------------|-----------3-|-4---4------|------------|

[Chorus]
G|-------------|------------|-------------|--------------|
D|-------------|-------0--3-|-1---3-0-----|--------------|
A|-------------|-1---1------|-----------6-|--------------|
E|-4---4-4---4-|------------|-------------|-4---4-4-4--4-|

G|--------------|------------|-------------|-------------|
D|--------------|-------0--3-|-1---3-0---1-|-----0-------|
A|--------------|-1---1------|-------------|-3-----1-----|
E|-4---4-4-4--4-|------------|-------------|-----------3-|

G|--------------|--------------3--|
D|--------------|------------3----|
A|--------------|-1---1-1-1-------|
E|-4---4-4-4--4-|-----------------|

[Outro]
G|-------------|--------------|--------------|------------|
D|-1---3-0---1-|--------------|--------------|-------0--3-|
A|-------------|-3---3-3-3--3-|--------------|-1---1------|
E|-------------|--------------|-4---4-4-4--4-|------------|

G|-------------|--------------|------------|------------| (x2)
D|-1---3-0---1-|--------------|----------1-|-------0--3-|
A|-------------|-3---3-3-3--3-|-------3----|-1---1------|
E|-------------|--------------|-4---4------|------------|

G|-------------|--------------|--------------|--------------|
D|-1---3-0---1-|--------------|--------------|--------------|
A|-------------|-3---3-3-3--3-|--------------|--------------|
E|-------------|--------------|-4---4-4-4--4-|-4---4-4-4--4-|

G|--------------|------------|------1--1----|
D|--------------|-------0--3-|-1--1------1--|
A|-1---1-1-1--1-|-1---1------|--------------|
E|--------------|------------|--------------|
Suggest correction
Give kudos to tab author, rate the tab!
1 2 3 4 5
comments
print report bad tab
guest
You may want to rate the tab now too:
select rating
Wanna post a correction for this tab? Suggest correction