Oops, an error
Loading. Please wait.

What Am I Supposed To Do Bass Tab

19 views 1 this week
no commentswrite comment
1 2 3 4 5
3 more votes to show rating
add to favorites
launch autoscroll
font size
0
reset
guitar tuner
Autoscroll
slow
fast
+/-
esc
set tempo
stop
Help us to improve Ultimate-Guitar.com Take our survey!
×
Author
Difficulty
novice
[Intro]
G|--------------|-------------|-------------|---------------|
D|--------------|-------------|-------------|---------------|
A|--3---3-------|-0---0-------|-3---3-------|-3---3-----0-3-|
E|--------3---3-|-------1---1-|-------1---1-|-------3-3-----|

G|-------------|-------------|-------------|---------------------|-------------|
D|-------------|-------------|-------------|---------------------|-------------|
A|-3---3-------|-------------|-------3---3-|---------------------|-------------|
E|-------3---3-|-5---5-0---0-|-1---1-------|-1---1-3--3--3-3-x-3-|--3-3-3-3-1--|

[Verse 1]
G|--------------|-------------|-------------|-------------|
D|--------------|-------------|-------------|-------------|
A|--3---3-------|-------3---3-|-------3---3-|-------0---0-|
E|--------3---3-|-1---1-------|-1---1-------|-3---3-------|

G|-------------------------|--------------|--------------|
D|-------------------------|--------------|--------------|
A|-------------------------|--------------|-3---3-3-3--3-|
E|-1---1-1-1--1-1---1-1-3--|--1---1-3---3-|--------------|

[Verse 2]
G|-------------|-------------|-------------|-------------|
D|-------------|-------------|-------------|-------------|
A|-3---3-------|-------3---3-|-------3---3-|-------0---0-|
E|-------3---3-|-1---1-------|-1---1-------|-3---3-------|

G|-------------------------|--------------|--------------|
D|-------------------------|--------------|---------0--2-|
A|-------------------------|--------------|-3---3-3------|
E|-1---1-1-1--1-1---1-1-3--|--1---1-3---3-|--------------|

[Chorus]
G|--------------|-2------------|--------------|------------|
D|-3-----2-2--2-|--------------|-3---3-3-3--3-|-3---3-3-5--|
A|-----3--------|--------------|--------------|------------|
E|--------------|-----0-5-5--5-|--------------|------------|

G|--------------|--------------|--------------|--------------|
D|-3-----2-2--2-|--------------|-3---3-3-3----|-3---3-3-3--3-|
A|-----3--------|--------------|------------3-|--------------|
E|--------------|-5---0-5-5--5-|--------------|--------------|

G|-----------------|--------------|
D|-5-5-5-5-5-5-5-5-|-5-5-5-5-5-3--|
A|-----------------|--------------|
E|-----------------|--------------|

[Instrumental]
G|--------------|-------------|-------------|---------------|
D|--------------|-------------|-------------|---------------|
A|--3---3-------|-0---0-------|-3---3-------|-3---3-----0-3-|
E|--------3---3-|-------1---1-|-------1---1-|-------3-3-----|

G|-------------|-------------|-------------|---------------------|----------------|
D|-------------|-------------|-------------|---------------------|----------------|
A|-3---3-------|-------------|-------3---3-|---------------------|----------0-2-2-|
E|-------3---3-|-5---5-0---0-|-1---1-------|-1---1-3--3--3-3-x-3-|--3-3-3-3-------|

[Chorus]
G|--------------|--------------|--------------|------------|
D|-3-----2-2--2-|--------------|-3---3-3-3--3-|-3---3-3-5--|
A|-----3--------|--------------|--------------|------------|
E|--------------|-5---0-5-5--5-|--------------|------------|

G|--------------|--------------|--------------|--------------|
D|-3-----2-2--2-|--------------|-3---3-3-3--3-|-3---3-3-3--3-|
A|-----3--------|--------------|--------------|--------------|
E|--------------|-5---0-5-5--5-|--------------|--------------|

G|-----------------|--------------|
D|-5-5-5-5-5-5-5-5-|-5-5-5-5-5-3--|
A|-----------------|--------------|
E|-----------------|--------------|

[Verse 3]
G|--------------|-------------|-------------|-------------|
D|--------------|-------------|-------------|-------------|
A|--3---3-------|-------3---3-|-------3---3-|-------0---0-|
E|--------3---3-|-1---1-------|-1---1-------|-3---3-------|

G|-------------------------|--------------|--------------|
D|-------------------------|--------------|--------------|
A|-------------------------|--------------|-3---3-3-3--3-|
E|-1---1-1-1--1-1---1-1-3--|--1---1-3---3-|--------------|

G|-------------|--------------|-------------|---------|
D|-------------|--------------|-------------|---------|
A|-3---3-------|--------------|-------------|-3-------|
E|-------3---3-|-1---1-1-1--1-|-1---1-3---3-|------3--|

[Outro]
G|--------------|-------------|-------------|---------------|
D|--------------|-------------|-------------|---------------|
A|--3---3-------|-0---0-------|-3---3-------|-3---3-----0-3-|
E|--------3---3-|-------1---1-|-------1---1-|-------3-3-----|

G|-------------|-------------|-------------|---------------| (x2)
D|-------------|-------------|-------------|---------------|
A|-3---3-------|-------------|-------3---3-|-----------0-3-|
E|-------3---3-|-5---5-0---0-|-1---1-------|-1---1-3-3-----|
                                                                  (getting slowly)
G|-------------|-------------|-------------|---------------------|----------------|-----|
D|-------------|-------------|-------------|---------------------|----------------|-----|
A|-3---3-------|-------------|-------3---3-|---------------------|----------------|--3--|
E|-------3---3-|-5---5-0---0-|-1---1-------|-1---1-3--3--3-3-x-3-|--3-3-3-3-0-1-0-|-----|

**********************

| x : dead note

**********************
Suggest correction
Give kudos to tab author, rate the tab!
1 2 3 4 5
comments
print report bad tab
guest
You may want to rate the tab now too:
select rating
Wanna post a correction for this tab? Suggest correction