Oops, an error
Loading. Please wait.

Elm Street Lover Boy Tab

7,235 views 9 this week
1 commentread comment
1 2 3 4 5
excellent!
x 8
add to favorites
launch autoscroll
font size
0
reset
how to read this tab
guitar tuner
Autoscroll
slow
fast
+/-
esc
set tempo
stop
Help us to improve Ultimate-Guitar.com Take our survey!
×
Contributor
Difficulty
intermediate
"Elm Street Lover Boy" Blue Room Session Acoustic Version
Written by Claudio Sanchez
Tabbed by Adam Shaw
Note: For learning purposes only, do not reproduce.


Verse
e--------------------------------------------------------------------|
B--------------------------------------------------------------------|
G------6---6-7---7-6-------6-----6-----------------------------------|
D-----7---------------7---7-----7--------11-----9-----0-----0-----0--|
A---5-----5-----5-------5-----5--------9------9-----9-----9-----9----|
E-----------------------------------7------7-----7-----7-----7-----0-|

E------------------------------------------------------------------|
B------------------------------------------------------------------|
G------------------------------------------------------------------|
D----7-----5-----4-----0-----0-------9-----7-----------------------|
A---5-----5-----5-----5-----5-------7-----7-----7-7/9-7-0-5-0-5-4-0|
E-3-----3-----3-----3-----3-----0-5-----5-----5--------------------|

Chorus

e-3---------------3------------------------------0----------------|
B---3---------------3---------------------3---------3-------3-----|
G-----0---------------0---------------2-----2---------2-------2---|
D-------0-----0---------0-----0-----0---0-----0---------0-------0-|
A-----------0---0-----------0---0-2-------------2---------2-------|
E-3-------3-------3-------3---------------------------------------|

e--------3---------------3-----------------------0~--------------|
B-----------3--------------3-------------0-----------------------|
G-------------0--------------0-------2-----2---------------------|
D-----0---------0-----0--------0---2---------2-------------------|
A---0---------------0------------0-----0-------0-----------------|
E-3-----3---------3-----3----------------------------------------|


Bridge 1 (Play section one once, then play section 2 twice. End on an A on the e string)

Section 1
e-------------------------0-----------------------5---------5----|
B-3-----1-------1-0---------0-------------5---------5---------5--|
G---0-----0---------0---------0-------7-----7---------7---------7|
D-----0-----0---------0---------0---7---------7---------7--------|
A-3-----------3---------3---------5-----5-------5---------5------|
E----------------------------------------------------------------|

Section 2
e-------------------------------------------------5--------------|
B---------3-------1-------0---------------5---------5------------|
G-----0-----0-------0-------0---------7-----7---------7-------7--|
D---2---------2-------2-------2-----7---------7---------7---7----|
A-3-----3-------3-------3-------3-5-----5-------5---------5-----5|
E----------------------------------------------------------------|

Bridge 2
e-5---------------5-------------------------------0---------------|
B---5---------------5---------------------0---------0-------------|
G-----7-------7-------7-------7-------0-----0---------0-------0---|
D-------7---7---7-------7---7---7---4---------4---------4---4---4-|
A-5-------5-------5-------5-------/5----4-------5---------5-------|
E-----------------------------------------------------------------|

e-----------------0------------------------------0~--------------|
B---------0---------0---------------------0----------------------|
G-----0-----0---------0-------0-------2-----2--------------------|
D---3---------3---------3---3---3---2---------2------------------|
A-2-----2-------2---------2-------0-----0-------0----------------|
E----------------------------------------------------------------|
comments
print report bad tab
1 comment total.
0 reply
luciner 14 wrote on May 22 2013, 04:58 pm

This is an amazing tab, one thing is very last bridge should be

0/3/2/0/0/0

instead of

0/2/3/0/0/0

5 stars mate. :)

I want to post or [tab]
guest
You may want to rate the tab now too:
select rating
Please do not post tabs as comments. Select "correction" instead!