Oops, an error
Loading. Please wait.

Margaretville Dance Bass Tab

746 views 1 this week
no commentswrite comment
1 2 3 4 5
please rate
add to favorites
launch autoscroll
font size
0
reset
guitar tuner
Autoscroll
slow
fast
+/-
esc
set tempo
stop
Help us to improve Ultimate-Guitar.com Take our survey!
×
Author
Tuning
D A D G B E
-------------------------------------------------------------------------------
			     The Margaretville Dance - The Prize Fighter Inferno
-------------------------------------------------------------------------------

Tuning: Drop D

Verse/Outro
G|-----------------------------------|
D|-----------------------------------|
A|------3----------------------------|
D|--5h7---7----5-5-7----3-3--3-2-----|

Chorus/2nd Bridge Part
G|----------------------------------------|
D|----------------------------------------|
A|----------------------------------------|
D|--3-3-2-3-5-5-3------2-2--2-0-0-2-------|

There is no bass in the first bridge part, but you can play these notes if you want to.
G|-----------------|
D|-----------------|
A|-----------------|
D|--3-------2------|

| /  slide up
| \  slide down
| h  hammer-on
| p  pull-off
| ~  vibrato
| +  harmonic
| x  Mute note
===============================================================================
Suggest correction
Give kudos to tab author, rate the tab!
1 2 3 4 5
comments
print report bad tab
guest
You may want to rate the tab now too:
select rating
Please do not post tabs as comments. Select "correction" instead!