Oops, an error
Loading. Please wait.

Im Gonna Be bass

version 1
version 1

Whole song

Interactive

10,330 views 18 this week
1 commentread comment
1 2 3 4 5
x 3
add to favorites
×
Save as Personal and add changes to this tab that will be seen only by you. Learn more ›
×
You can save this tab as Personal to edit and correct it or add notes. All changes will be seen only by you. Learn more »
launch autoscroll
font size
0
reset
guitar tuner
edit
Autoscroll
slow
fast
+/-
esc
set tempo
stop
Author
Difficulty
Proclaimers - I'm Gonna Be (500 Miles)
by wormark

Verse 1, Verse 3a
      Q  H.       Q  H.       H   H     Q   H.      
G||------------|-----------|------2---|------------||---------------|
D||*-----2-----|-----2-----|----------|-----2----*-||-----2---------|
A||*-----------|-----------|--0-------|----------*-||---------------|
E||---0--------|--0--------|----------|--0---------||--0--------7s--|
Chorus
|--------------|----------------|----------------|------------------|
|*-------------|----------------|----------------|----------------*-|
|*-------------|----------------|--0--0--0--0-2--|--2--2--2--2-2--*-|
|--0--0--0--0--|--0--0--0--0-0--|----------------|------------------|
Verse 2, Verse 3b
|---------------|--------------|--------------|----------------|
|*--------------|--------------|--------------|--------------*-|
|*--------------|--------------|--0--0--2--2--|--------------*-|
|---0--0--0--0--|--0--0--0--0--|--------------|--0--0--0--0-0--|
Transition
|--------------|------------|-----|----------------|-------------------|
|--------------|------------|-----|----------------|-------------------|
|--4--4--4--4--|------------|-----|----------------|-------------------|
|--------------|--5----7----|--L--|--0--0--0--0-0--|--0-0-0-0-0-0-0----|

Verse 1
When I wake up, well I know I'm gonna be
I'm gonna be the man who wakes up next to you
When I go out, yeah I know I'm gonna be
I'm gonna be the man who goes along with you

If I get drunk, well I know I'm gonna be
I'm gonna be the man who gets drunk next to you
And if I haver, yeah I know I'm gonna be
I'm gonna be the man who's havering to you

Chorus
But I would walk five hundred miles
And I would walk five hundred more
Just to be the man who walked five thousand miles
To fall down at your door

Verse 2
When I'm working, yes I know I'm gonna be
I'm gonna be the man who's working hard for you
And when the money, comes in for the work I do
I'll pass almost every penny on to you

                (When I come home)
When I come home                  oh I know I'm gonna be
I'm gonna be the man who comes back home to you
And if I grow old, well I know I'm gonna be
I'm gonna be the man who's growing old with you

Chorus

Bridge
ah-da-dat-dat (ah-da-dat-dat)
ah-da-dat-dat (ah-da-dat-dat)
~da-da-da-dun-da-da-dum-da-la-dum-da-da-da~

ah-da-dat-dat (ah-da-dat-dat)
ah-da-dat-dat (ah-da-dat-dat)
~da-da-da-dun-da-da-dum-da-la-dum-da-da-da~

Verse 3a
When I'm lonely, well I know I'm gonna be
I'm gonna be the man whose lonely without you
And when I'm dreaming, well I know I'm gonna dream
Dream about the time when I'm with you.
Verse 3b
              (When I go out)
When I go out                well I know I'm gonna be
I'm gonna be the man who goes along with you
                     (When I come home)
And when I come home                   yes I know I'm gonna be,
I'm gonna, be the man who comes back home with you
I'm gonna be the man who's coming home..... with you 
Transition
Chorus
Bridge
Bridge
Chorus

            
            
Suggest correction
Creating personal tab
Creating personal tab
You can edit any tab online and save it as your Personal.

You can edit, replace or remove any tab part or add personal notes – all changes will be seen only by you.

Personal tabs can be accessed anytime from any device, even offline.
Learn more »
Give kudos to tab author, rate the tab!
1 2 3 4 5
comments
print report bad tab
1 comment total.
0 reply
madscs 120 Sep 14, 2013 02:50 AM

Nice tab! I do have one small correction though. As far as I can tell it goes to the high A on the G string (G-2) instead of the B on the A string (A-2).

G||------------|-----------|----------|------------||---------------|
D||*-----2-----|-----2-----|----------|-----2----*-||-----2---------|
A||*-----------|-----------|--0---2---|----------*-||---------------|
E||---0--------|--0--------|----------|--0---------||--0--------7s--|

Should be:
G||------------|-----------|-----2----|------------||---------------|
D||*-----2-----|-----2-----|----------|-----2----*-||-----2---------|
A||*-----------|-----------|--0-------|----------*-||---------------|
E||---0--------|--0--------|----------|--0---------||--0--------7s--|

Otherwise, thanks for the tab! :)

guest
You may want to rate the tab now too:
select rating
Wanna post a correction for this tab? Suggest correction