Oops, an error
Loading. Please wait.

Im On My Way bass

version 1
version 1

Whole song

Interactive

2,227 views 9 this week
no commentswrite comment
1 2 3 4 5
1 last vote to show rating
add to favorites
×
Save as Personal and add changes to this tab that will be seen only by you. Learn more ›
×
You can save this tab as Personal to edit and correct it or add notes. All changes will be seen only by you. Learn more »
launch autoscroll
font size
0
reset
guitar tuner
edit
Autoscroll
slow
fast
+/-
esc
set tempo
stop
Author
Difficulty
[INTRO]
  G#       G#       G#       G#       
G:--------|--------|--------|--------|
D:--------|--------|--------|--------|
A:--------|--------|--------|--------|
E:4-4-4-4-|4-4-4-42h4-4-4-4-|4-4-4-4-|



[VERSE]
  G#  
    I'm on my way from misery to happiness today    Uh huh, Uh huh, Uh huh, Uh huh
  D#
    I'm on my way from misery to happiness today    Uh huh, Uh huh, Uh huh, Uh huh

  G#       G#       G#       G#       D#       D#       D#       D#
G:--------|--------|--------|--------|--------|--------|--------|--------|
D:--------|--------|--------|--------|--------|--------|--------|--------|
A:--------|--------|--------|-------4h6-6-6-6-|6-6-6-6-|6-6-6-6-|6-4-3---|
E:4-4-4-4-|4-4-4-42h4-4-4-4-|4-4-4-4-|--------|--------|--------|------6-|



[CHORUS]
  G#                     C#
    I'm on my way     to what I want from this world
  G#                             C#
    And years from now,     I'll make it to the next world
  G#                   C#
    And everything     that you receive up yonder
  G#                        D#
    Is what you gave     to me the day I wandered

  G#       C#       G#       C#       G#       C#       G#       D#
G:--------|--------|--------|--------|--------|--------|--------|--------|
D:--------|--------|--------|--------|--------|--------|--------|1-1-1-1-|
A:--------|4-------|--------|4-------|--------|4-------|--------|--------|
E:4-4-4-4-|--1-2-3-|4-4-4-4-|--1-2-3-|4-4-4-4-|--1-2-3-|4-4-4-4-|--------|



[VERSE]
  G#
    I took a right   I took a right turn yesterday  Uh huh, Uh huh, Uh huh, Uh huh
  D#
  Yeah  I took a right   I took a right turn yesterday  yeah, yeah, yeah, yeah

  G#       G#       G#       G#       D#       D#       D#       D#
G:--------|--------|--------|--------|--------|--------|--------|--------|
D:--------|--------|--------|--------|--------|--------|--------|--------|
A:--------|--------|--------|-------4h6-6-6-6-|6-6-6-6-|6-6-6-6-|6-4-3---|
E:4-4-4-4-|4-4-4-42h4-4-4-4-|4-4-4-4-|--------|--------|--------|------6-|


[CHORUS]
  G#                             C#
    I took the road         that brought me to your home town
  G#                           C#
    I took the bus          to streets that I could walk down
  G#                           C#
    I walked the streets    to find the one I've looked for
  G#                             D#
    I climbed the stair     that led me to your front door

  G#       C#       G#       C#       G#       C#       G#       D#
G:--------|--------|--------|--------|--------|--------|--------|--------|
D:--------|--------|--------|--------|--------|--------|--------|1-1-1-1-|
A:--------|4-------|--------|4-------|--------|4-------|--------|--------|
E:4-4-4-4-|--1-2-3-|4-4-4-4-|--1-2-3-|4-4-4-4-|--1-2-3-|4-4-4-4-|--------|

[BRIDGE]
  C#             D#               G#
    And now that I don't want for anything   (Oooh Oooh Oooh Oooh Oooooooh)
  C#             D#               G#                    D#
    I'll have Al Jolson sing "I'm Sittin' On Top of the World"

  C#       D#       G#       G#       C#       D#       G#       D#
G:--------|--------|--------|--------|--------|--------|--------|--------|
D:--3-6-3-|--5-8-5-|------3-|--------|--3-6-3-|--5-8-5-|------3-|--------|
A:4-------|6-------|--3-6--3|------3-|4-------|6-------|--3-6--4|6-6-6-6-|
E:--------|--------|4-------|4-4-6---|--------|--------|4-------|--------|


[VERSE]
  G#  
    I'll do my best       I'll do my best to do the best I can

    Uh huh, Uh huh, Uh huh, Uh huh, Yeah
  D#
    I'll do my best       I'll do my best to do the best I can

    Ah, ah, ah, ah

  G#       G#       G#       G#       D#       D#       D#       D#
G:--------|--------|--------|--------|--------|--------|--------|--------|
D:--------|--------|--------|--------|--------|--------|--------|--------|
A:--------|--------|--------|-------4h6-6-6-6-|6-6-6-6-|6-6-6-6-|6-4-3---|
E:4-4-4-4-|4-4-4-42h4-4-4-4-|4-4-4-4-|--------|--------|--------|------6-|

[CHORUS]
  G#                           C#
    To keep my feet       from jumping from the ground, dear
  G#                           C#
    To keep my heart      from jumping through my mouth, dear
  G#                          C#   
    To keep the past,     the past but not the present
  G#                           D#
    To try and learn,     will you teach me a lesson?
  
  G#       C#       G#       C#       G#       C#       G#       D#
G:--------|--------|--------|--------|--------|--------|--------|--------|
D:--------|--------|------1-|--------|--------|--------|--------|--------|
A:----1-3-|4-------|----1---|4-------|----1-3-|4-------|----3-4-|6-6-6-6-|
E:4-4-----|--1-2-3-|4-4-----|--1-2-3-|4-4-----|--1-2-3-|4-4-----|--------|


[BRIDGE]
  C#             D#               G#
    And now that I don't want for anything   (Oooh Oooh Oooh Oooh Oooooooh)
  C#             D#               G#                    D#
    I'll have Al Jolson sing "I'm Sittin' On Top of the World"

  C#       D#       G#       G#       C#       D#       G#       D#       D#
G:--------|--------|--------|--------|--------|--------|--------|--------|--------|
D:--3-6-3-|--5-8-5-|------3-|--------|--3-6-3-|--5-8-5-|--------|--------|--------|
A:4-------|6-------|--3-6--3|------3-|4-------|6-------|----3-4-|6-6-6-6-|6-4-3---|
E:--------|--------|4-------|4-4-6---|--------|--------|4-6-----|--------|------6-|

[VERSE]
  G#  
    I'm on my way from misery to happiness today    Uh huh, Uh huh, Uh huh, Uh huh
  D#
    I'm on my way from misery to happiness today    Yeah, yeah, yeah, yeah

  G#       G#       G#       G#       D#       D#       D#       D#
G:--------|--------|--------|--------|--------|--------|--------|--------|
D:--------|--------|--------|--------|--------|--------|--------|--------|
A:--------|--------|--------|-------4h6-6-6-6-|6-6-6-6-|6-6-6-6-|6-4-3---|
E:4-4-4-4-|4-4-4-42h4-4-4-4-|4-4-4-4-|--------|--------|--------|------6-|

[CODA]
  G#                     C#
    I'm on my way     to what I want from this world
  G#                             C#
    And years from now,     I'll make it to the next world
  G#                   C#
    And everything     that you receive up yonder
  G#                        C#
    Is what you gave     to me the day I wandered

  G#       C#       G#       C#       G#       C#       G#       C#
G:--------|--------|--------|--------|--------|--------|--------|--------|
D:--------|--------|------1-|--------|--------|--------|--------|--3-6-3-|
A:----1-3-|4-------|----1---|4-------|----1-3-|4-------|----1-3-|4-------|
E:4-4-----|--1-2-3-|4-4-----|--1-2-3-|4-4-----|--1-2-3-|4-4-----|--------|

  G#                     C#
    I'm on my way     to what I want from this world
  G#                             C#
    And years from now,     I'll make it to the next world
  G#                   C#
    And everything     that you receive up yonder
  G#                        D# (let ring...)
    Is what you gave     to me the day I wandered

  G#       C#       G#       C#       G#       C#       G#       D#
G:--------|--------|--------|--------|--------|--------|--------|--------|
D:--------|--------|--------|--3-6-3-|--------|--------|------3-|--------|
A:----1-3-|4-------|--3-6-3-|4-------|----1-3-|4-------|--3-6--4|6~~~~~~~|
E:4-4-----|--1-2-3-|4-------|--------|4-4-----|--1-2-3-|4-------|--------|

  I'm on my way...  I'm on my way...  I'm on my way...  I'm on my way...
  G#       G#       G#       G#       G#       G#       G#       G#
G:--------|--------|--------|--------|--------|--------|--------|--------|
D:--------|--------|--------|--------|--------|--------|--------|--------|
A:--------|--------|--------|--------|--------|--------|--------|--------|
E:4-4-4-4-|4-4-4-42h4-4-4-4-|4-4-4-42h4-4-4-4-|4-4-4-42h4-4-4-4-|4-4-4-4-|

Tabbed by Michael Oxner (moxner@nbnet.nb.ca)
Suggest correction
Creating personal tab
Creating personal tab
You can edit any tab online and save it as your Personal.

You can edit, replace or remove any tab part or add personal notes – all changes will be seen only by you.

Personal tabs can be accessed anytime from any device, even offline.
Learn more »
Give kudos to tab author, rate the tab!
1 2 3 4 5
comments
print report bad tab
guest
You may want to rate the tab now too:
select rating
Wanna post a correction for this tab? Suggest correction