Oops, an error
Loading. Please wait.

Breathe Tab

version 1
version 1

Whole song

Interactive

67,375 views 120 this week
5 commentsread comments
1 2 3 4 5
x 27
add to favorites
launch autoscroll
font size
0
reset
how to read this tab
guitar tuner
Autoscroll
slow
fast
+/-
esc
set tempo
stop
Help us to improve Ultimate-Guitar.com Take our survey!
×
[Intro] (clean)
e|-----------------------------------|
B|-----------------------------------|
G|-----------------------------------|
D|-1-1-1-1-4-1-4-3-1-3-0-0-0-0-0-0-0-|
A|-----------------------------------|
E|-----------------------------------|

Distortion chords when he sings "Come play my game"
e|----------------|
B|----------------|
G|-3---2----------|
D|-1---0---6----2-|
A|---------4----0-|
E|----------------|

There's also a little part that appears sometimes in the background -
it sounds kind of like the intro.
e|-----------------------|
B|-----------------------|
G|-----------------------|
D|-4-4-4-4-4-3-3-1-1-0-0-|
A|-0-0-0-0-0-0-0-0-0-0-0-|
E|-----------------------|
Suggest correction
comments
print report bad tab
5 comments total. Showing first comments.
+4 reply
system_chick182 10 May 13, 2007 09:46 AM

great tab but i think that you should just drop d tuning and play it on that string ..not bad ..great song ...but im suprised no-one has commented apart from me ...kl tab xxx:)

+2 reply
thearatellis 16 Sep 25, 2007 02:53 PM

briill

+2 reply
auslander1980 133 Jan 05, 2008 08:56 AM

incredible

guest
You may want to rate the tab now too:
select rating
Wanna post a correction for this tab? Suggest correction