Oops, an error
Loading. Please wait.

Charly tab

version 2
version 2

Whole song

Interactive

456 views 1 this week
2 commentsread comments
1 2 3 4 5
3 more votes to show rating
add to favorites
×
Save as Personal and add changes to this tab that will be seen only by you. Learn more ›
×
You can save this tab as Personal to edit and correct it or add notes. All changes will be seen only by you. Learn more »
launch autoscroll
font size
0
reset
how to read this tab
guitar tuner
edit
Autoscroll
slow
fast
+/-
esc
set tempo
stop
On only for the headstrong as an outro.



e|---9--14--12--14-----------14----16---0--7--19--17--19--|
B|-7---------------------14-------------------------------|
G|--------------------------------------------------------|
D|--------------------------------------------------------|
A|--------------------------------------------------------|
E|--------------------------------------------------------|

e|-17--------------14--------------|
B|-----17--15----------------------|
G|------------16-------------------|
D|---------------------------------|
A|---------------------------------|
E|---------------------------------|

            
            
Suggest correction
Creating personal tab
Creating personal tab
You can edit any tab online and save it as your Personal.

You can edit, replace or remove any tab part or add personal notes – all changes will be seen only by you.

Personal tabs can be accessed anytime from any device, even offline.
Learn more »
Give kudos to tab author, rate the tab!
1 2 3 4 5
comments
print report bad tab
2 comments total.
0 reply
aceofclover 10 Feb 15, 2009 12:05 AM

great tab but i would play the synth part
e---4--4------ e---0-5-2-5-----
b----4---4---4 play that three times then b---------------
g----------1--1 g--4-------------
d-------------- d-6--------------

0 reply
aceofclover 10 Feb 15, 2009 12:06 AM

that was for the beggining part i got mixed up

guest
Wanna post a correction for this tab? Suggest correction