Oops, an error
Loading. Please wait.

Arise To His World Of Infamy tab

178 views 1 this week
no commentswrite comment
1 2 3 4 5
3 more votes to show rating
add to favorites
×
Save as Personal and add changes to this tab that will be seen only by you. Learn more ›
×
You can save this tab as Personal to edit and correct it or add notes. All changes will be seen only by you. Learn more »
launch autoscroll
font size
0
reset
how to read this tab
guitar tuner
edit
Autoscroll
slow
fast
+/-
esc
set tempo
stop
Author
Difficulty
SONG: Arise to His World of Infamy
ARTIST: The Projcet Hate MCMXCIX
ALBUM : The Lustrate Process

Tuning (High to Low): A-E-C-G-D-A (A STANDARD)

PM- Palm mute     * - Pinch Harmonic             ^ - strum upwards
\ - Slide down    > - let ring                   x - pick slide
/ - Slide up      h - hammer on
~ - Vibrato       p - pull off
w - wide vibrato  b(1/4) - Bend (step)
. - Stoccato      br(1/4) - Bend release (step)


Riff 1A
A|-----------------------------------------------------------------|
E|-----------------------------------------------------------------|
C|-----------------------------------------------------------------|
G|-----------------------------------------------------------------|
D|-5-5-5-5-5-5-4-4-4-4-4-4-----------------------------------------|
A|-------------------------2-2-2-2-1-1-1-1-1-1-4-4-4-4-4-4-1-1-1-1-|

A|-----------------------------------------------------------------|
E|-----------------------------------------------------------------|
C|-----------------------------------------------------------------|
G|-----------------------------------------------------------------|
D|-----------------------------------------------------------------|
A|-2-2-2-2-2-2-5-5-5-5-5-5-2-2-2-2-1-1-1-1-1-1-4-4-4-4-4-4-1-1-1-1-|


Riff 1A is played once as the song begins to fade in


.............................................................................

Solo by Par Fransson
Tuning (High to Low): E-B-G-D-A-E (STANDARD)

NOTE: The sweeping in the beginning is not what he plays and is very hard 
to decipher because of the fade-in, but it is close enough so that it still 
sounds good, if anyone knows what he is doing, contact me.

PART I
E|-------------11h15p11----------------------13h17p13-------------|
B|----------13----------13----------------15----------15----------|
G|-------12----------------12----------14----------------14-------|
D|----13----------------------13----15----------------------15----|
A|-15----------------------------17----------------------------17-|
E|----------------------------------------------------------------|

E|-------------16h20p16-20b(1)--20br(1)w--|
B|----------18----------------------------|
G|-------17-------------------------------|
D|----18----------------------------------|
A|-20-------------------------------------|
E|----------------------------------------|

PART II
E|-20-17h20p17-19-17h19p17-------------------------|
B|-------------------------21-18h21p18-19-18h19p18-|
G|-------------------------------------------------|
D|-------------------------------------------------|
A|-------------------------------------------------|
E|-------------------------------------------------|

E|--------------------------------------------------------|
B|-18h19p18-----------------------------------------------|
G|----------21-19-18----------19-18-----------------------|
D|-------------------21-19-18-------21-19-18--------------|
A|-------------------------------------------21-19-16~\---|
E|--------------------------------------------------------|

PART III
E|-------------------------------------------------------------------|
B|-------------------------------------------------------------------|
G|---------x2-----------------x2-------------------------------------|
D|-(16-12-15-16-15-12)-(13-9-12-13-12-9)-----------------------------|
A|-------------------------------------------------------------------|
E|---------------------------------------9-5-8-9-8-5-11-7-10-11-10-7-|

E|-------------------------------------------|
B|-------------------------------------------|
G|-------------------------------------------|
D|-----------------15-11-14-15-14-11-14-11~--|
A|-12-8-11-12-11-8---------------------------|
E|-------------------------------------------|

PART IV
E|-------------13/16--------------------16/19--------20b(1)w--|
B|----------12-------18--------------15-------21--------------|
G|-------13-------------19\-------16-------------22\----------|
D|-12/15--------------------15/18-----------------------------|
A|------------------------------------------------------------|
E|------------------------------------------------------------|

.............................................................................


Rythm under solo:
Riff 1A x2


Riff 1A x4 (I'll lick your wounds with my poisonous tongue...)


Riff 2
--Pt.A--
GTR.I
A|------------------------------------------------------------------|
E|------------------------------------------------------------------|
C|------------------------------------------------------------------|
G|-----------------------------------------------------10-7-----9-6-|
D|---------7-6---------2-3-----3-6---------7-6----------------------|
A|-0-0-0-0-----0-0-0-0-----0-0-----0-0-0-0-----0-0-0-0------0-0-----|
   PM-----|    PM-----|    PM-|    PM-----|    PM-----|     PM-|

GTR.II
A|--------------------------------------------------|
E|--------------------------------------------------|
C|--------------------------------------------------|
G|--------------------------------------------------|
D|---------14--------\------------------------------|
A|-0-0-0-0-12--------\------------------------------|
   PM-----|

--Pt.B--
GTR.I
A|------------------------------------------------------------|
E|------------------------------------------------------------|
C|------------------------------------------------------------|
G|-------------------------------------------------5--6--3----|
D|---------7-6---------2-3-----3-6-----------------5--6--3----|
A|-0-0-0-0-----0-0-0-0-----0-0-----4-4-4-4-1-1-1-1-3--4--1----|
   PM-----|    PM-----|    PM-|       

GTR.II
A|------------------------------------------------------------|
E|------------------------------------------------------------|
C|---------.--------------------------------------------------|
G|-2---2---2---------------------------------------5--6--3----|
D|-2---2---2---------------------------------------5--6--3----|
A|-0---0---0-----------------------4-4-4-4-1-1-1-1-3--4--1----|


Riff 2 Sequence:
Pt.A
Pt.B
(GUITARS SWITCH)
Pt.A
Pt.B (note that the timing of the chords for GTR.II is a tad different)


Riff 1 x2


Riff 3
Pt.A              Pt.B                 Pt.C              Pt.D
A|---------------|--------------------|-----------------|-----------------|
E|---------------|--------------------|-----------------|-----------------|
C|---------------|--------------------|-----------.-----|-----------------|
G|---------------|--------------------|---------5-8-----|-----------------|
D|----7br(1/2)-\-|----/7h8p7-11-8-8-5-|---------5-8-----|---------5--4--3-|
A|-0-------------|-0------------------|-4---1---3-6---1-|-4-4-1-1-3--2--1-|


Riff 3 Sequence:
Pt.A
Pt.B
Pt.A
Pt.C        
Pt.A
Pt.B
Pt.A
Pt.D
(play all together twice)


Riff 4
GTR.I
Pt.A                       Pt.B   Pt.C     
A|------------------------|------|---------|
E|------------------------|------|---------|
C|----------------9-------|-7~---|-8-------|
G|------7--8p7p5------8---|------|-8---5---|
D|------------------------|------|-6---5---|
A|-5----------------------|------|-----3---|

GTR.II
Pt.A            Pt.C             Riff 4 Sequence:    
A|-------------|---------|       GTR.1:    GTR.II:
E|-------------|---------|       Pt.A--\
C|-------------|-8-------|       Pt.B---|- Pt.A
G|-7>----------|-8---5---|       Pt.A--/
D|-7>----------|-6---5---|       Pt.C      Pt.C     
A|-5>----------|-----3---|       Pt.A      Pt.A
                                      Pt.D       
TOGETHER                         (play all together twice)                                  
Pt.D
A|---------------------------|
E|---------------------------|
C|-9br(1/2)-10---9-7---------|
G|--------------------11~----|
D|---------------------------|
A|---------------------------|


Riff 5 (Prepare for war...)
Pt.A            Pt.B                   Pt.C
A|-------------|----------------------|--------------------|
E|-------------|----------------------|--------------------|
C|-------------|----------------------|--------------------|
G|-------------|----------------------|--------------------|
D|-----2-3-----|-7---7-6-6---6/7-7~---|-7---7-6-6---6/9-9~-|
A|-0-------0---|----------------------|--------------------|
 
PT.D                     Riff 5 Sequence:
A|------------------|    Pt.A
E|------------------|    Pt.B
C|------------------|    Pt.A
G|------------------|    Pt.C    (play all together twice)
D|-/9~---10~---9~---|    Pt.A
A|------------------|    Pt.B
                         Pt.D


Riff 6
A|---------------------------------------------------|
E|---------------------------------------------------|
C|-----10~--------13--11--10---------8---------8~----|
G|-/8---------11--------------11~-------10-----------|
D|------------------------------------------8--------|
A|---------------------------------------------------|

A|-----------------------------------------|
E|-----------------------------------------|
C|-----10~--------13--11--10--11~----8~----|
G|-/8---------11---------------------------|
D|-----------------------------------------|
A|-----------------------------------------|


Riff 7A
(ALL NOTES ARE PALM MUTED, EXCEPT FOR SLIDES)
Pt.A
A|-----------------------------------------------------------------------|
E|-----------------------------------------------------------------------|
C|-----------------------------------------------------------------------|
G|-7-7-7-7-7-7-7-7-7-7-10-10-9-9-7-7-10-10-10-10---------7-7-7-7---------|
D|-----------------------------------------------7-7-7-7---------7-7-7-7-|
A|-----------------------------------------------------------------------|

Pt.B
A|-----------------------------------------------------------------|
E|-----------------------------------------------------------------|
C|-----------------------------------------------------------------|
G|---------7-7-7-7-7-7-7-7-7-7-7-7---------6-6-6-6-6-6-6-6-6-6-6-6-|
D|-8-8-8-8-------------------------7-7-7-7-------------------------|
A|-----------------------------------------------------------------|

Pt.C
A|---------------------------------------------------------------------|
E|---------------------------------------------------------------------|
C|-----------------------------------------------------10--7-----------|
G|---------7-7-7-7-7-7-7-7-7-7-7-7-8-8-8-8-8-8-8-8-8\---------[11--8]--|
D|-8-8-8-8-------------------------------------------------------------|
A|---------------------------------------------------------------------|


Riff 7A Sequence:
Pt.A
Pt.B   
Pt.A
PT.C (omit what is in [these brackets])


.............................................................................

Solo by Mike Wead
Tuning (High to Low): E-B-G-D-A-E (STANDARD)

[these brackets] indicate start of next peice

PART I
E|-------------------------------------------|
B|-------------------------------------------|
G|-10~---9--10--9--10--12--10~---12--[9~]----|
D|-------------------------------------------|
A|-------------------------------------------|
E|-------------------------------------------|

E|----------------------13-10-----------------------|
B|----------------------------11-8------------------|
G|-10-9----9-10-9-10-12------------10-9-------------|
D|------12------------------------------10-7-[12~]--|
A|--------------------------------------------------|
E|--------------------------------------------------|

PART II
E|--------------------------------------------------|
B|---------------------------13----15b(1/4)---------|
G|-14~---12--14--12--14--15------------------12~----|
D|--------------------------------------------------|
A|--------------------------------------------------|
E|--------------------------------------------------|

PART III
E|--------------------------------------------------|
B|--------------------------------------------------|
G|-15--12--15--12----------------------------12~----|
D|-----------------15~---14--15--14--15--12---------|
A|--------------------------------------------------|
E|--------------------------------------------------|

E|-12h13p12-------------------------------------------------------------|
B|----------15-13----15-13-11----13-11----------------------------------|
G|----------------15----------14-------14----------------12-14-15-13-12-|
D|----------------------------------------15-14-12-14-15----------------|
A|----------------------------------------------------------------------|
E|----------------------------------------------------------------------|

E|------------------|
B|-------13-15~-----|
G|-14-15------------|
D|------------------|
A|------------------|
E|------------------|

PART IV
E|---------------------------------------------|
B|-------------------------11~-----10~---8~----|
G|-10~---9--10--9--10--12----------------------|
D|---------------------------------------------|
A|---------------------------------------------|
E|---------------------------------------------|

.............................................................................


Rythm under solo:
Riff 7A x1 (include what is in [these brackets])
and:

Riff 7B
(ALL NOTES ARE PALM MUTED, EXCEPT FOR SLIDES)
Pt.A
A|--------------------------------------------------------------------------|
E|--------------------------------------------------------------------------|
C|--------------------------------------------------------------------------|
G|-7-7-7-7-7-7-7-7-7-7-7-7-[7-7-7-7]-10-10-10-10-7-7-7-7-10-10-10-10-7-7-7-7|
D|--------------------------------------------------------------------------|
A|--------------------------------------------------------------------------|

Pt.B
A|---------------------------------------------------------------------|
E|---------------------------------------------------------------------|
C|---------------------------------------------------------------------|
G|-8-8-8-8-8-8-8-8-8-8-8-8-8-8-8-8-8-8-8-8-8-8-8-8-8-8-8-8-8-8p6~------|
D|---------------------------------------------------------------------|
A|---------------------------------------------------------------------|

Pt.C
A|---------------------------------------------------------------------|
E|---------------------------------------------------------------------|
C|---------------------------------------------------------------------|
G|-6-6-6-6-6-6-6-6-6-6-6-6-6-6-6-6-6-6-6-6-6-6-6-6-6-6-6-6-6-6\--------|
D|--------------------------------------------------------------/--\---|
A|--------------------------------------------------------------/--\---|


Riff 7B Sequence:
Pt.A (omit what is in [these brackets])
Pt.B   
Pt.A (include what is in [these brackets])
PT.C


Riff 8 (played all together twice)
A|------------------------------------------------------------------|
E|------------------------------------------------------------------|
C|------------------------------------------------------------------|
G|-7--------7--6~----6--------7--6br(1/2)--4---/7---6---7---/11~----|
D|-----4-----------------4------------------------------------------|
A|------------------------------------------------------------------|

A|-------------------------|
E|-------------------------|
C|-------------------------|
G|-7---6---4---3---4---6---|
D|-------------------------|
A|-------------------------|

A|------------------------------------------------------------------|
E|----------------------------------------------------------/10~----|
C|------------------------------------------------------------------|
G|-7--------7--6~----6--------7--6br(1/2)--4---/7---6---7-----------|
D|-----4-----------------4------------------------------------------|
A|------------------------------------------------------------------|

A|---------------------------|
E|-10---9---7h9p7-6---7--9---|
C|---------------------------|
G|---------------------------|
D|---------------------------|
A|---------------------------|


Riff 2 Sequence:
Pt.A
Pt.B
(GUITARS SWITCH)
Pt.A
Pt.B (note that the timing of the chords for GTR.II is a tad different)


Then together:

Riff 2 (I spread my wings so bloodied and torn...)
Pt.B
A|------------------------------------------------------------------|
E|------------------------------------------------------------------|
C|------------------------------------------------------------------|
G|-----------------------------------------------------10-7-----9-6-|
D|---------7-6---------2-3-----3-6---------7-6----------------------|
A|-0-0-0-0-----0-0-0-0-----0-0-----0-0-0-0-----0-0-0-0------0-0-----|
   PM-----|    PM-----|    PM-|    PM-----|    PM-----|     PM-|

Pt.B
A|--------------------------------------------------------------------|
E|--------------------------------------------------------------------|
C|--------------------------------------------------------------------|
G|---------------------------------------------6-----3-----5--6--3----|
D|---------7-6---------2-3-----3-6---------7-6-6-----3-----5--6--3----|
A|-0-0-0-0-----0-0-0-0-----0-0-----0-0-0-0-----4-----1-----3--4--1----|
   PM-----|    PM-----|    PM-|    PM-----|    


BRIDGE (I arise!)
GTR.I
A|-------------------------------|
E|-------------------------------|
C|-------------------------------|
G|-7--7--------------------------|
D|-7--7-----7-----7-----7-----7--|
A|-5--5--5--5--5--5--5--5--5--5--|
         PM    PM    PM    PM
                                             x2
GTR.II
A|-------------------------------|
E|-------------------------------|
C|-------.-----------------------|
G|-7--7--7-----------------------|
D|-7--7--7-----------------------|
A|-5--5--5-----------------------|


Riff 9 (See their blood run cold...)
A|-------------------|   |-------------------------------|
E|-------------------|   |-------------------------------|
C|-------------------|   |-------------------------------|
G|-7--7--------------|x6 |-------------------------------| x4
D|-7--7-----7-----7--|   |----------7-----7-----7-----7--|
A|-5--5--5--5--5--5--|   |-5--5--5--5--5--5--5--5--5--5--|
         PM    PM          PM-----|    PM    PM    PM


LEAD
A|-----------------------------------------------------|
E|----------------*------------------------------------|
C|-14---12---10---9w-----------------------------------|
G|-------------------------12---14br(1/2)br(1/2)~------|
D|-----------------------------------------------------|
A|-----------------------------------------------------|

A|-------------------------------------------------------------------------|
E|-------------------------------------------------------------------------|
C|-10---9h10p9-7---12---10h12p10-9---15---14h15p14-12---10h12p10---9---7---|
G|-------------------------------------------------------------------------|
D|-------------------------------------------------------------------------|
A|-------------------------------------------------------------------------|

A|------------------------------------------------------|
E|----------------*-------------------------------------|
C|-14---12---10---9w----------------------------/14~----|
G|-------------------------12---14br(1/2)b(1/2)---------|
D|------------------------------------------------------|
A|------------------------------------------------------|

A|-------------------------------------|
E|-15~---------------------------------|
C|----------12~------15~------14~------|
G|-------------------------------------|
D|-------------------------------------|
A|-------------------------------------|


Rythm Under Lead:
(ALL NOTES ARE PALM MUTED)
A|-------------------------------------------|
E|-------------------------------------------|
C|-------------------------------------------|
G|-------------------------------------------|
D|-------------------------------------------|
A|-[5--5--5--5--5--5]x4-[6--6--6--6--6--6]x2-|
                                                       x2
A|-------------------------------------|
E|-------------------------------------|
C|-------------------------------------|
G|-------------------------------------|
D|-------------------------------------|
A|-9--9--9--9--9--9--6--6--6--6--6--6--|


Riff 10 (Tear out their souls...)
GTR.I
A|---------------------------------------------|
E|---------------------------------------------|
C|---------------------------------------------|
G|-8-------------------------------------------|
D|----10---9--9--------.-------.-------.-------|
A|-----------------2-2-2---2-2-2---2-2-2---2-2-|
                   PM-------------------------|
                                                           x4
A|---------------------------------------------|
E|---------------------------------------------|
C|---------------------------------------------|
G|-8-------------------------------------------|
D|----10---9--9--------.-------.-----------5---|
A|-----------------2-2-2---2-2-2---2-2-2---3---|
                   PM-------------------|

GTR.II
A|-------------------------------------------------------|..
E|-------------------------------------------------------| .
C|-------------------------------------------------------| .
G|-8---------------8-------9--8-8-8-8--------------------| .
D|----10---9--9--------10-------------10--10-9-7---------| .
A|------------------------------------------------11--8--| .
                                                           ..x3
A|-------------------------------------------------------| .
E|-------------------------------------------------------| .
C|------------------------------------------------*------| .
G|-8---------------8-------9--8-8-8-8-------------9w-----| .
D|----10---9--9--------10-------------10--10-9-7---------| .
A|-------------------------------------------------------|..

A|-------------------------------------------------------|
E|-------------------------------------------------------|
C|-------------------------------------------------------|
G|-8---------------8-------9--8-8-8-8--------------------|
D|----10---9--9--------10-------------10--10-9-7---------|
A|------------------------------------------------11--8--|

A|---------------------------------------------|
E|---------------------------------------------|
C|---------------------------------------------|
G|-8-------------------------------------------|
D|----10---9--9--------.-------.-----------5---|
A|-----------------2-2-2---2-2-2---2-2-2---3---|
                   PM-------------------|


Riff 1B
Pt.A 
A|---------------------------------|
E|---------------------------------|
C|---------------------------------|
G|---------------------------------|
D|-7-7-7-7-7-7-6-6-6-6-6-6---------|
A|-------------------------4-4-4-4-|

Pt.B
A|---------------------------------|
E|---------------------------------|
C|---------------------------------|
G|---------------------------------|
D|---------------------------------|
A|-3-3-3-3-3-3-6-6-6-6-6-6-3-3-3-3-|

A|-----------------------------------------------------------------|
E|-----------------------------------------------------------------|
C|-----------------------------------------------------------------|
G|-----------------------------------------------------------------|
D|-----------------------------------------------------------------|
A|-4-4-4-4-4-4-7-7-7-7-7-7-4-4-4-4-3-3-3-3-3-3-6-6-6-6-6-6-3-3-3-3-|

A|-----------------------------------------------------------------|
E|-----------------------------------------------------------------|
C|-----------------------------------------------------------------|
G|-----------------------------------------------------------------|
D|-7-7-7-7-7-7-6-6-6-6-6-6-----------------------------------------|
A|-------------------------4-4-4-4-3-3-3-3-3-3-6-6-6-6-6-6-3-3-3-3-|

A|-----------------------------------------------------------------|
E|-----------------------------------------------------------------|
C|-----------------------------------------------------------------|
G|-----------------------------------------------------------------|
D|---------------------------------6-6-6-6-6-6-6-6-5-5-5-5-5-5-5-5-|
A|-4-4-4-4-4-4-7-7-7-7-7-7-4-4-4-4---------------------------------|

Pt.C
A|--------------------------|
E|--------------------------|
C|--------------------------|
G|-/9~------8~------9~------|
D|--------------------------|
A|--------------------------|

Pt.D (with some weird effect)
A|-17w--16w--12~--15w--14w--10~--16w--15w--12~--15w--14w--10~--|
E|-------------------------------------------------------------|
C|-------------------------------------------------------------|
G|-------------------------------------------------------------|
D|-------------------------------------------------------------|
A|-------------------------------------------------------------|


Riff 1B Sequence:
Pt.A
Pt.B
PT.C
Pt.B
PT.D


Riff 1C
A|-----------------------------------------------------------------|
E|-----------------------------------------------------------------|
C|-----------------------------------------------------------------|
G|-----------------------------------------------------------------|
D|-5-5-5-5-5-5-4-4-4-4-4-4-----------------------------------------|
A|-------------------------2-2-2-2-1-1-1-1-1-1-4-4-4-4-4-4-1-1-1-1-|

A|-----------------------------------------------------------------|
E|-----------------------------------------------------------------|
C|-----------------------------------------------------------------|
G|-----------------------------------------------------------------|
D|-----------------------------------------------------------------|
A|-2-2-2-2-2-2-5-5-5-5-5-5-2-2-2-2-1-1-1-1-1-1-4-4-4-4-4-4-1-1-1-1-|

A|-----------------------------------------------------------------|
E|-----------------------------------------------------------------|
C|-----------------------------------------------------------------|
G|-----------------------------------------------------------------|
D|-5-5-5-5-5-5-4-4-4-4-4-4-----------------------------------------|
A|-------------------------2-2-2-2-1-1-1-1-1-1-4-4-4-4-4-4-1-1-1-1-|

A|-----------------------------------------------------------------|
E|-----------------------------------------------------------------|
C|-----------------------------------------------------------------|
G|-----------------------------------------------------------------|
D|---------------------------------4-4-4-4-4-4-4-4-3-3-3-3-3-3-3-3-|
A|-2-2-2-2-2-2-5-5-5-5-5-5-2-2-2-2---------------------------------|


Riff 7A Sequence:
Pt.A
Pt.B   
Pt.A
PT.C (include what is in [these brackets])


Riff 7B Sequence:
Pt.A (omit what is in [these brackets])
Pt.B   
Pt.A (include what is in [these brackets])
PT.C 


Riff 11A
Pt.A                                Pt.B    Pt.C
A|---------------------------------|-------|-------|
E|---------------------------------|-------|-------|
C|---------------------------------|-------|--/10--|
G|----2>---------------2>-------5--|--/10--|--/7---|
D|----2>---------------2>-------3--|--/8---|-------|
A|-0--0>------------0--0>----0-----|-------|-------|
   PM               PM       PM


Riff 11A Sequence:
Pt.A
Pt.B   
Pt.A       
Pt.C 
(play all together 2 times) 

Riff 11B                                
A|-----------------------------------------|
E|-----------------------------------------|
C|------------------------------------/10--|
G|----2>---------------2>-------10----/7---|  x2
D|----2>---------------2>-------8----------|
A|-0--0>------------0--0>----0-------------|
   PM               PM       PM

Riff 11C
A|--------------------------|
E|--------------------------|    Do not play what is in 
C|-[10]-9--4----------------|    [these brackets] first time
G|-[7-]-6--2-----------.----| x4  
D|---------------------2----|
A|--------------0-0-0--0----|
                PM---|          

Riff 11 BRIDGE
A|----------|
E|----------|
C|----------|
G|----------|
D|-----/-\--|
A|-x\--/-\--|


Riff 11 LEAD
A|-----------------------------------------------|    
E|-----------------------------------------------|   
C|-------1~--------------------------------------|    
G|-3--2--------3--3p2p0--2--0--2--3--2--0--2-----|    
D|--------------------------------------------4--|    
A|-----------------------------------------------|    
                                                        x8 omit very last
A|--------------------------------------------------|      note on last
E|--------------------------------------------------|      repeat 
C|-------1~-----------------------------------------| 
G|-3--2--------3--2--3--/9--7--6h7p6-3--6--3--------|  
D|--------------------------------------------7--5--| 
A|--------------------------------------------------|


Rythm under Riff 11 LEAD:
Riff 11B x7
then:
A|-----------------------------------------|
E|-----------------------------------------|
C|------------------------------------.----|
G|----2>---------------2>-------10----10---|  END    
D|----2>---------------2>-------8-----8----|
A|-0--0>------------0--0>----0-------------|
   PM               PM       PM
Suggest correction
Creating personal tab
Creating personal tab
You can edit any tab online and save it as your Personal.

You can edit, replace or remove any tab part or add personal notes – all changes will be seen only by you.

Personal tabs can be accessed anytime from any device, even offline.
Learn more »
Give kudos to tab author, rate the tab!
1 2 3 4 5
comments
print report bad tab
guest
You may want to rate the tab now too:
select rating
Wanna post a correction for this tab? Suggest correction