Oops, an error
Loading. Please wait.

The Bleeding Eyes Of A Breeding Whore tab

216 views 1 this week
no commentswrite comment
1 2 3 4 5
3 more votes to show rating
add to favorites
×
Save as Personal and add changes to this tab that will be seen only by you. Learn more ›
×
You can save this tab as Personal to edit and correct it or add notes. All changes will be seen only by you. Learn more »
launch autoscroll
font size
0
reset
how to read this tab
guitar tuner
edit
Autoscroll
slow
fast
+/-
esc
set tempo
stop
Author
Difficulty
SONG: The Bleeding Eyes of a Breeding Whore
ARTIST: The Projcet Hate MCMXCIX
ALBUM : Armageddon March Eternal - Symphonies of Slit Wrists

Tuning (High to Low): A-E-C-G-D-A (A STANDARD)

PM- Palm mute     * - Pinch Harmonic             ^ - strum upwards
\ - Slide down    > - let ring                   x - pick slide
/ - Slide up      h - hammer on                  r - rest  
~ - Vibrato       p - pull off
w - wide vibrato  b(1/4) - Bend (step)
. - Stoccato      br(1/4) - Bend release (step)   


Intro
GTR.I
Pt.A
A|-------------------------------------------------------------------|
E|-------------------------------------------------------------------|
C|-------------------------------------------------8---8---7h8p7---7-|
G|---------------------------------------------------------------8---|
D|-5---5---5-5-5---5---5---5-5-5---5-5-5---5-5-5---------------------|
A|-------------------------------------------------------------------|

Pt.B
A|--------------------------------------------------------|
E|--------------------------------------------------------|
C|--------------------------------------------------------|
G|----------------------------[12--12--12--8--8--8--8--7]-|
D|-5---5-5-5---5---5---5-5-5---10--10--10--6--6--6--6--5--|
A|--------------------------------------------------------|

Pt.C
A|----------------------------------------------------|
E|----------------------------------------------------|
C|-------------------------------------------------.--|
G|----------------------------[12--12--12\6--6--6--6]-|
D|-5---5-5-5---5---5---5-5-5--/10--10--10\4--4--4--4--|
A|----------------------------------------------------|

Everything in [these brackets] is played by GTR.III

GTR.II
Pt.A
A|------------------------------------------------------------------|
E|------------------------------------------------------------------|
C|------------------------------------------------------------------|
G|-7>-------------------------------------------------------------r-|
D|-5>-------------------------------------------------------------r-|
A|------------------------------------------------------------------|

Pt.B
A|---------------------------------------------------------|
E|---------------------------------------------------------|
C|---------------------------------------------------------|
G|-[silence]-----------------------------------------------|
D|------------------------------------------------------5--|
A|---------------------------------------------------------|
                                                        PM
Pt.C
A|----------------------------------------------------|
E|----------------------------------------------------|
C|--------------------------------------.----------.--|
G|-[silence]-----------------------12--12-------6--6--|
D|---------------------------------10--10-------4--4--|
A|----------------------------------------------------|

Intro Sequence (same for both guitars):
Pt.A
Pt.B
Pt.A
Pt.C


Bridge
A|--------|
E|--------|
C|--------|
G|--------|
D|-/-12-\-|
A|-/-12-\-|


Riff 1
Pt.A                                                      Pt.B
A|-------------------------------------------------------|----------------|
E|-------------------------------------------------------|----------------|
C|-----x4-----------------------x2-----------------------|----------------|
G|-[7--7--7]--8--8--7h8p7---[7--7--7]--7--7--/12--12--12-|-8--8--8--8--8--|
D|----{x4}----------------8----{x2}----------------------|----------------|
A|{[5--5--5]--6--6--5h6p5-1-[5--5--5]--5--5--/10--10--10}|{6--6--6--6--6}-|

Pt.C               Pt.D                       
A|----------------|-------------|              Riff 1 Sequence:   
E|----------------|-------------|              Pt.A 
C|----------------|-------------|              Pt.B   
G|-6--6--6--6--6--|--6--6--both:|              Pt.A              
D|----------------|--------/--\-|              Pt.C
A|{4--4--4--4--4}-|-{4--4}-/--\-|              Pt.A
                                               Pt.B
Everything in {these brackets} located         Pt.A  
on the lowest string is played by GTR.II       Pt.D


Riff 2A (We burn ourselves...)
A|---------------------------------------------------------------|
E|---------------------------------------------------------------|
C|---------------------------------------------------------------|
G|-2-------------------------------------------------------------|
D|-2--------x3-------------7--9--6-------x3-------------9--5--2--|
A|-0---{0--0--0--0}--0--0--5--7--4--{0--0--0--0}--0--0--7--3--0--|
        PM---------------|           PM---------------|
                                                                       x2
A|-----------------------------------------------------------|
E|-----------------------------------------------------------|
C|-----------------------------------------------------------|
G|-----------------------------------------------------------|
D|------x3-------9--7--9-----------6-----6-------------------|
A|-{0--0--0--0}--7--5--7--8--5--8-----5-----8--5--8--4-1-5-4-|
    PM--------|


Riff 3 (I see through you and the lies you have created...)
Pt.A                                  Pt.B
A|-----------------------------------|-----------------------------------|
E|-----------------------------------|-----------------------------------|
C|-----------------------------------|-----------------------------------|
G|-----------------------------------|-----------------------------------|
D|---------------.------------.------|---------------.------------.------|
A|-0-0-0-0-0-0-0-0------0-0-0-0------|-4-4-4-4-4-4-4-4------4-4-4-4------|
   PM-------------|     PM-----|       PM-------------|     PM-----|

Pt.C                                              
A|------------------------------------------|     Riff 3 Sequence:
E|------------------------------------------|     Pt.A x2--|  
C|------------------------------------------|              |--x3
G|-6---------6---------6--6--------6\-------|     Pt.B x2--|
D|-6---------6---------6--6--------6\--/-\--|     Pt.A 
A|-4--4---4--4--4---4--4--4--4--4--4\--/-\--|     Pt.C
      PM---|    PM---|       PM--|


Riff 4 (As many as we are armies...)
Pt.A
A|------------------------------------------------|
E|------------------------------------------------|
C|-8--9-------------------------------------------|
G|-6--7-----9-------9--9-----9-------9--9-----9---|
D|------7-7-7---7-7-7--7-7-7-7---7-7-7--7-7-7-7---|
A|------------------------------------------------|
        PM-|    PM-|     PM-|    PM-|     PM-|

Pt.B
A|------------------------------------------------|         Riff 4 Sequence:
E|------------------------------------------------|         Pt.A
C|-8--9------------------------------6--6---------|         Pt.B
G|-6--7-----8-------8--8-----6-------4--4-----9---|         Pt.A
D|------6-6-6---6-6-6--6-6-6-4---4-4------7-7-7---|         Pt.C
A|------------------------------------------------|         Pt.A
        PM-|    PM-|     PM-|    PM-|     PM-|              Pt.B
                                                            Pt.A
Pt.C                                                        Pt.D
A|--------------------------------------------------|
E|--------------------------------------------------|
C|--------------------------------------------------|
G|-13-----------13-----------13-----------13-9------|
D|-11--11---11--11--11---11--11--11---11--11-7-/-\--|
A|---------------------------------------------/-\--|
       PM-----|     PM-----|     PM-----|

Pt.D
A|------------------------------------------------------------------------|
E|------------------------------------------------------------------------|
C|------------------------------------------------------------------------|
G|-13-----------13-----------13-----------13-----------14-13-11-14-13~----|
D|-11--11---11--11--11---11--11--11---11--11--11---11--12-11-9--12-11~----|
A|------------------------------------------------------------------------|
       PM-----|     PM-----|     PM-----|     PM-----|


Riff 5
A|--------------------------------------|
E|--------------------------------------|
C|--------------------------------------|  x3 Include what is in
G|-/7~------6~------/9~------{10~------}|     {these brackets} only
D|--------------------------------------|     on third repeat
A|--------------------------------------|


Bridge 2 (Why can't you understand!?)
A|--------------------------------------|
E|--------------------------------------|
C|--------------------------------------|
G|-6--6--6-6--6--6--9--9--9-9-9-10~---r-|
D|-6--6--6-6--6--6--9--9--9-9-9-10~---r-|
A|-4--4--4-4--4--4--7--7--7-7-7-8-~---r-|


Riff 6
(ALL NOTES PALM MUTED!)
Pt.A
A|-------------------------------------------------------------------|
E|-------------------------------------------------------------------|
C|-------------------------------------------------------------------|
G|-------------------------------------------------------------------|
D|-----x6------------------------x2--------x2--------x2--------x2----|
A|-[5-5-5-5]-7-7-7-7-7-7-8-8-[4-4-4-4]-[7-7-7-7]-[4-4-4-4]-{5-5-5-5}-|

Pt.B
A|---------------------------------------------------------|
E|---------------------------------------------------------|
C|---------------------------------------------------------|
G|---------------------------------------------------------|
D|-----x6------------------------x2--------x2--------x4----|
A|-[5-5-5-5]-7-7-7-7-7-7-8-8-[4-4-4-4]-[7-7-7-7]-[5-5-5-5]-|

Pt.C
A|-----------------------|      Riff 6 Sequence:
E|-----------------------|      Pt.A
C|-----------------------|      Pt.B
G|------x7---------------|      Pt.A (omit what is in {these brackets})
D|-{2--2--2--2}--2--2--\-|      Pt.C
A|-{0--0--0--0}--0--0--\-|


Riff 2A x1


Riff 2B
A|--------------------------------------------------------------------------|
E|--------------------------------------------------------------------------|
C|--------------------------------------------------------------------------|
G|-2------------------------------------------------------------------------|
D|-2--------x3-------------7--9--6---------------------------------------9-\|
A|-0---{0--0--0--0}--0--0--5--7--4--0--0--0--0--0--0--0--0-0--0-0--0--0--7-\|
        PM---------------|          PM---------------------------------|
                                                                       
A|-------------------------------------------------------------|
E|-------------------------------------------------------------|
C|----------------------------------------------------------.--|
G|-2----------------------------------------------------6-5-3--|
D|-2-------x3-------9--7--9-----------6-----6-----------6-5-3--|
A|-0--{0--0--0--0}--7--5--7--8--5--8-----5-----8--5--8--4-3-1--|
       PM--------|


Riff 7
GTR.I
Pt.A
A|---------------------------------------------------|
E|---------------------------------------------------|    Riff 7 Sequence:
C|---------------------------------------------------|    Pt.A
G|---------------------------------*-----------------|    Pt.B
D|-6----6--4h-6--6\----------------3w---6----6--4h6--|    Pt.A     x5
A|---------------------0--1--3--4--------------------|    Pt.C
                                                          
Pt.B                             Pt.C                      
A|------------------------------|----------------|
E|------------------------------|----------------|
C|------------------------------|----------------|
G|------------------------------|--7--------4----|
D|--7\----7--7--6--/6--4--3~----|--7--------4----|
A|------------------------------|--5--------2----|

GTR.II
A|-------------|  GTR.II then joins GTR.I           
E|-------------|  after GTR.I plays it's first      
C|-------------|  progression of Pt.A and Pt.B       
G|-8>----------|  
D|-6>----------|  
A|-------------|

A|-------------------------------|
E|-------------------------------|   GTR.II substitutes Pt.C for this
C|-------------------------------|   on Pt.C's very last two repitions
G|-7-----------------------------|
D|-7--------2--2--2--4--2--2--2--|
A|-5--------0--0--0--2--0--0--0--|
            PM-----------------|

GTR.III
A|-------------|  GTR.III then joins in by playing this chord right when 
E|-------------|  GTR.I and GTR.II begin playing the same riff together.
C|-------------|  It then joins into the complete mix when the first      
G|-8\---r------|  progression of Pt.C is played, playing the exact same 
D|-6\---r------|  notes as GTR.I and GTR.II, and on-ward.
A|-------------|

Riff 7 Lead A
A|-----------------------------------------------------------------------|  
E|-----------------------------------------------------------------------|
C|-------8---------------------------------8-----------------------------|
G|----8-----6--8h9--8~----6~------------8-----6--8h9--11~----13~---------|x2
D|-6---------------------------------6-----------------------------------|
A|-----------------------------------------------------------------------|
   PM--|                             PM--|

Lead A joins in after Riff 7 has played two sequences, joining the rhythm 
guitars for one Riff 7 sequnce. Then, it is silent while the rhythm guitars 
play another Riff 7 sequence. Afterwards, the Lead joins in on Riff 7's very 
last repition with:

Riff 7 Lead B
Pt.A
A|--------------------------------------------------|
E|--------------------------------------------------|
C|--------------------------------------------------|
G|--------------------------------------------------|
D|-6----6--4/-6--6~----4--4--6--6--2--2~------------|
A|--------------------------------------------------|

Pt.B
A|------------------------------------------|   Riff 7 Lead B Sequence: 
E|------------------------------------------|   Pt.A
C|------------------------------------------|   Pt.B
G|------------------------------------------|   Pt.A
D|-6----6--4/-6--7~----7--7--6--/6--4--3~---|   Pt.C
A|------------------------------------------|

Pt.C
A|-------------------------------|
E|-------------------------------|
C|-------------------------------|
G|-------------------------------|
D|-6----6--4/-6--7~--------4~----|
A|-------------------------------|


Bridge 3 (Fool!!)
A|-------------------------------------------------|
E|-------------------------------------------------|
C|-------------------------------------.------.----|
G|--6--6--6-7--7--7-9--9--9-10-10-10\--2------2----|
D|--6--6--6-7--7--7-9--9--9-10-10-10\--2------2----|
A|--4--4--4-5--5--5-7--7--7-8--8--8-\--0------0----|


Riff 8A
Pt.A
A|------------------------------------------------------------|
E|------------------------------------------------------------|
C|------------------------------------------------------------|
G|-9-----------9---9--9--9--9--9-----------9---10-10----------| 
D|-7---7-7-7-7-7---7--7--7--7--7---7-7-7-7-7---8--8--7h8p7----|
A|---------------------------------------------------------8--|
       PM----|     PM--------|     PM----|

Pt.B                                                      Riff 8A Sequence:
A|---------------------------------------------------|    Pt.A x3
E|---------------------------------------------------|    Pt.B
C|---------------------------------------------------|
G|-9-----------9---9--9--9--9--9---------------------|
D|-7---7-7-7-7-7---7--7--7--7--7---8--7-----6--8--6--|
A|---------------------------------------8-----------|
       PM----|     PM--------|     

Riff 8B (On a bed of thorns I lie...)
Pt.A 
A|------------------------------------------|
E|------------------------------------------|
C|-------------------.----------------------|
G|-9--------9--------9----------------.-{.}-|
D|-7--7--7--7--7--7--7----7--7--7--8--5-{2}-|
A|------------------------5--5--5--6--3-{0}-|
      PM--|    PM-----|   PM--------------|

Pt.B
A|-------------------------------------------|   Riff 8B Sequence:
E|-------------------------------------------|   Pt.A omit {these brackets}
C|-------------------.-----------------------|   Pt.B
G|-9--------9--------9-----------------------|   Pt.A include brackets
D|-7--7--7--7--7--7--7----7--7--7--8---8---8-|   Pt.C
A|------------------------5--5--5--6---6---6-|
      PM--|    PM-----|   PM----------------|

Pt.C
A|-----------------------------------------|
E|-----------------------------------------|
C|-------------------.---------------------|
G|-9--------9--------9---------------------|
D|-7--7--7--7--7--7--7---8--7-----6--8--6--|
A|-----------------------------8-----------|
      PM--|    PM-----|   

Riff 9
All notes are Palm Muted!
A|------------------------------------------|                    
E|------------------------------------------|                   
C|------------------------------------------|                    
G|------------------------------------------| 
D|-----x8--------x4--------x2--------x2-----|
A|-[5-5-5-5]-[4-4-4-4]-[7-7-7-7]-[4-4-4-4]--|
                                                                x2 on repeat 
A|----------------------------------------------------------|   replace what
E|----------------------------------------------------------|   is in {these
C|----------------------------------------------------------|   brackets} for
G|-------------------------------------------------(9\---r)-|   (these 
D|-----x8--------x4--------x2----------------------(9\---r)-|   brackets)
A|-[5-5-5-5]-[4-4-4-4]-[7-7-7-7]-{4-4-4-4-8-8-8-8}-(7\---r)-|


========== Industrial Interlude =========== 


Riff 10
GTR.I
Pt.A
A|---------------------------------------------------------------|
E|---------------------------------------------------------------|
C|---------------------------------------------------------------|
G|-----8-----8------------9-----9--------------13------13--------|
D|-----8-----8------------9-----9--------------13------13--------|
A|-6-6-6---6-6--------7-7-7---7-7--------11-11-11---11-11--------|
   PM-|    PM         PM-|    PM         PM--|      PM

Pt.B                         Pt.C                           Pt.D   
A|--------------------------|------------------------------|-------------|
E|--------------------------|------------------------------|-------------|
C|--------------------------|------------------------------|---.---------|
G|-------12------12-12------|-------14------------.--------|--13---------|
D|-------12------12-12------|-------14---14--14--14--------|--13---------|
A|-10-10-10---10-10-10------|-12-12-12---12--12--12--------|--11---------|
   PM--|      PM              PM---|     PM--------|

GTR.II
Pt.A                                  Pt.B
A|-----------------------------------|----------------------------|
E|-----------------------------------|----------------------------|
C|-----------------------------------|----------------------------|
G|------------------------------9----|----------------------------|
D|-----.------8---8-------.-----9----|-----------.------13---13---|
A|-6-6-6------6---6---7-7-7---7-7----|----11-11-11------11---11---|
   PM---|     PM---|  PM---|  PM          PM-----|      PM-----|

Pt.C                         Pt.D
A|--------------------------|------------------------------------------|
E|--------------------------|------------------------------------------|
C|--------------------------|------------------------------------------|
G|----------------12-12-----|------------------------------------------|
D|-12---12---12---12-12-----|---------------------------------14--14---|
A|-10---10---10---10-10-----|-11-11-11---11-11-11---12-12-12--12--12---|
   PM----------|              PM------|  PM------|  PM--------------|

Pt.E
A|----------------------------------|
E|----------------------------------|
C|------------------------.---------|
G|-----------------------13---------|
D|-----------------------13---------|
A|-11-11-11---11-11-11---11---------|
   PM------|  PM------|

Riff 10 Sequence:
GTR.I     GTR.II
PT.A      Pt.A
Pt.B      Pt.B
PT.A      Pt.C
Pt.C      Pt.A
          Pt.D

-Guitars switch-

GTR.I     GTR.II
PT.A      Pt.A
Pt.B      Pt.B
PT.A      Pt.C
Pt.D      Pt.A
          Pt.E


Riff 11 (Why won't you understand?)
Pt.A                                                 Pt.B
A|--------------------------------------------------|------------|
E|--------------------------------------------------|------------|
C|--------------------------------------------------|------------|
G|--------------------------------------------------|-------.----|
D|-3======4======--------------3======4======-------|-------4----|
A|---------------1======0======--------------1======|2======2----|

Pt.C               
A|-------------|       Riff 11 Sequence:
E|-------------|       Pt.A
C|-------------|       Pt.B
G|-.--.--.--.--|       Pt.A
D|-3--3--4--4--|       Pt.C
A|-1--1--2--2--|


Riff 12
Pt.A                            Pt.B        Pt.C                  Riff 12 
A|-----------------------------|-----------|-------------------|  Sequence:
E|-----------------------------|-----------|-------------------|  Pt.A x2
C|-----------------------------|-----------|-------------------|  Pt.B
G|-----------------------------|-----------|-------------------|  Pt.A x2
D|-------------.----------.----|----x8-----|-6--------6--------|  Pt.C x2
A|-0-0-0-0-0-0-0----0-0-0-0----|-[4-4-4-4]-|-4--4--4--4--4--4--| all together
   PM-----------|   PM-----|      PM-----|      PM--|    PM--|   twice

Riff 12 Lead
Pt.A                                    Pt.B
A|-------------------------------------|----------------|
E|-12----------------------------------|------x8--------|
C|----9-9-9-11-9-9-9-12-9-9-9-11-9-9-9-|-[13-13-13-13]--|
G|-------------------------------------|----------------|
D|-------------------------------------|----------------|
A|-------------------------------------|----------------|

Pt.C
A|--------------------------------------------------|
E|--------------------------------------------------|
C|-20-13-13-13-15-13-13-13-16-13-13-13-15-13-13-13--|
G|--------------------------------------------------|
D|--------------------------------------------------|
A|--------------------------------------------------|

Pt.D
A|------------------------------------|          Riff 12 Lead Sequence:
E|------------------------------------|          Pt.A x2
C|-20---15---16-----15h16p15--13~-----|          Pt.B
G|------------------------------------|          Pt.A x2
D|------------------------------------|          Pt.C x2
A|------------------------------------|          Pt.A x2
                                                 Pt.B
                                                 Pt.A x2
                                                 Pt.C
                                                 Pt.D

Pt.E (This part "leaks" on top of one of the Riff 4 repeats)
A|---------------------------------------------------------------------|
E|---------------------------------------------------------------------|
C|-13~-----------------.--------------------16-16-15h16p15----15-16-18-|
G|----------14----13--14---9~---\6--6--6~------------------18----------|
D|---------------------------------------------------------------------|
A|---------------------------------------------------------------------|

A|---------------------------------------|
E|-16~---16-17-12~-----11/12~------------|
C|---------------------------------------|
G|---------------------------------------|
D|---------------------------------------|
A|---------------------------------------| 


..............................................................
                                                             .
Riff 4                                                       .
Pt.A                                                         .
PT.B                                                         .  
PT.A                                                         . 
Then:                                                        .
A|-----------------------------------------------------|     .
E|-----------------------------------------------------|     .   x2    
C|-----------------------------------------------------|     .
G|-13-----------13-----------13-----------13-----------|     .
D|-11--11---11--11--11---11--11--11---11--11--11---11--|     .
A|-----------------------------------------------------|     .
       PM-----|     PM-----|     PM-----|     PM-----|       .
                                                             .
..............................................................


Intro
Pt.A
Pt.B
Then:
GTR.I
A|----------------------------------------------------------------------|
E|-----------------------------------------------------.----------------|
C|----7--8--5--7--8--/12--11~---7--8--5--3--2~---------3----------------|
G|-----------------------------------------------0--2--1----------------|
D|--5----------------------------------------------------------------\--|
A|-------------------------------------------------------------------\--|
                                              PM--|

GTR.II
A|-------------------------------------------------------------------|
E|---------------------------10-11-8--6--5~--------------------------|
C|-.------------------------------------------------.----------------|
G|-7------------------------------------------7--9--8----------------|
D|-5------------------------------------------5--7--6-------------\--|
A|----------------------------------------------------------------\--|
                                              PM--|

Variation of Intro
Pt.A
A|--------------------------------------------------------------------|
E|--------------------------------------------------------------------|
C|--------------------------------------------------------------------|
G|-------------------------------------------------7---7---6h7p6---6--|
D|---------------------------------------------------------------7----|
A|-4---4---4-4-4---4---4---4-4-4---4-4-4---4-4-4----------------------|

Pt.B
A|---------------------------------------------------------|
E|---------------------------------------------------------|
C|---------------------------------------------------------|
G|---------------------------------------------------------|
D|---------------------------------------------------------|
A|-4---4-4-4---4---4---4-4-4---9-9---9-9--9--5-5---5-5--5--|

Pt.C
A|---------------------------------------------------------|  Variation of
E|---------------------------------------------------------|  Intro Seq:
C|---------------------------------------------------------|  Pt.A
G|---------------------------------------------------------|  Pt.B
D|---------------------------------------------------------|  Pt.A
A|-4---4-4-4---4---4---4-4-4---9-9---9-9--9--3-3---3-3--3--|  Pt.C
                                                              Pt.A
Pt.D                                                          Pt.B
A|---------------------------------------------------------|  Pt.A
E|---------------------------------------------------------|  Pt.D
C|-------------------------------------------------.-------|
G|-------------------------------------------------5-------|  END
D|-------------------------------------------5--5--5-------|
A|-4---4-4-4---4---4---4-4-4---9-9---9-9--9--3--3--3-------|
                                             PM--|

            
            
Suggest correction
Creating personal tab
Creating personal tab
You can edit any tab online and save it as your Personal.

You can edit, replace or remove any tab part or add personal notes – all changes will be seen only by you.

Personal tabs can be accessed anytime from any device, even offline.
Learn more »
Give kudos to tab author, rate the tab!
1 2 3 4 5
comments
print report bad tab
guest
You may want to rate the tab now too:
select rating
Wanna post a correction for this tab? Suggest correction