Oops, an error
Loading. Please wait.

Nothing Feels Good bass

202 views 1 this week
no commentswrite comment
1 2 3 4 5
x 3
add to favorites
×
Save as Personal and add changes to this tab that will be seen only by you. Learn more ›
×
You can save this tab as Personal to edit and correct it or add notes. All changes will be seen only by you. Learn more »
launch autoscroll
font size
0
reset
guitar tuner
edit
Autoscroll
slow
fast
+/-
esc
set tempo
stop
Author
Difficulty
--------------------------------------------------------------------------
                                          Artist - The Promise Ring 
                                         ***************************
                                          Song - Nothing Feels Good    
                                         ***************************
                                       Album - Nothing Feels Good (1997)
                                      ***********************************
                                            Tabbed By - Ayreon77
                                           **********************
--------------------------------------------------------------------------
Tuning = Standard             


VERSE 1
********
And Indianapolis summers in park and recreation pools
G|--------------------|-------|-----------|-------|
D|------------5-5-5-5-|-5-5-5-|-----------|-------|
A|-------8-7----------|-------|-7-8-8-8-8-|-8-8-8-|
E|--------------------|-------|-----------|-------|

And carsick vacations in size eleven In "I'm going to heaven"             shoes
G|---------------------|-------|-----------|---------|---------|---------|---------|-------|
D|-------------5-5-5-5-|-5-5-5-|-----------|---------|-9-9-9-9-|-9-9-9-7-|-5-5-5-5-|-5-5-5-|
A|----------7----------|-------|-7-8-8-8-8-|-8-8-8-7-|---------|---------|---------|-------|
E|---------------------|-------|-----------|---------|---------|---------|---------|-------|


----------------------
00:44
CHORUS
*******
         And I don't know God   And I don't know anyone  And I don't know
G|-----------|-------|--------------|-------|-----------|-------|
D|-----------|-------|------5-5-5-5-|-5-5-5-|-----------|-------|
A|-7-8-8-8-8-|-8-8-8-|-8-7----------|-------|-7-8-8-8-8-|-8-8-8-|
E|-----------|-------|--------------|-------|-----------|-------|

  God  And I don't know if anything at all will be all right.
G|------------|-------|-----------|---------|---------|---------|---------|-------|
D|----5-5-5-5-|-5-5-5-|-----------|---------|-9-9-9-9-|-9-9-9-7-|-5-5-5-5-|-5-5-5-|
A|-7----------|-------|-7-8-8-8-8-|-8-8-8-7-|---------|---------|---------|-------|
E|------------|-------|-----------|---------|---------|---------|---------|-------|


----------------------
01:04
VERSE 2
********
        I don't know Billy Ocean     I don't know the ocean floor
G|-----------|-------|--------------|-------|-----------|-------|
D|-----------|-------|------5-5-5-5-|-5-5-5-|-----------|-------|
A|-7-8-8-8-8-|-8-8-8-|-8-7----------|-------|-7-8-8-8-8-|-8-8-8-|
E|-----------|-------|--------------|-------|-----------|-------|

I don't own any albums, I don't know anything. I don't go to college anymore.
G|------------|-------|-----------|---------|---------|---------|---------|-------|
D|----5-5-5-5-|-5-5-5-|-----------|---------|-9-9-9-9-|-9-9-9-7-|-5-5-5-5-|-5-5-5-|
A|-7----------|-------|-7-8-8-8-8-|-8-8-8-7-|---------|---------|---------|-------|
E|------------|-------|-----------|---------|---------|---------|---------|-------|


----------------------
01:25
CHORUS
*******
         And I don't know God   And I don't know anyone  And I don't know
G|-----------|-------|--------------|-------|-----------|-------|
D|-----------|-------|------5-5-5-5-|-5-5-5-|-----------|-------|
A|-7-8-8-8-8-|-8-8-8-|-8-7----------|-------|-7-8-8-8-8-|-8-8-8-|
E|-----------|-------|--------------|-------|-----------|-------|

  God  And I don't know if anything at all will be all right.
G|------------|-------|-----------|---------|---------|---------|---------|-------|
D|----5-5-5-5-|-5-5-5-|-----------|---------|-9-9-9-9-|-9-9-9-7-|-5-5-5-5-|-5-5-5-|
A|-7----------|-------|-7-8-8-8-8-|-8-8-8-7-|---------|---------|---------|-------|
E|------------|-------|-----------|---------|---------|---------|---------|-------|


----------------------
01:45
OUTRO
******
I've got my hands on the one end,  And I don't know where to put them.
G|-----------|-------|--------------|-------|-----|
D|-----------|-------|------5-5-5-5-|-5-5-5-|-----|
A|-7-8-8-8-8-|-8-8-8-|-8-7----------|-------|-7-8-|
E|-----------|-------|--------------|-------|-----|



ENJOY.........

            
            
Suggest correction
Creating personal tab
Creating personal tab
You can edit any tab online and save it as your Personal.

You can edit, replace or remove any tab part or add personal notes – all changes will be seen only by you.

Personal tabs can be accessed anytime from any device, even offline.
Learn more »
Give kudos to tab author, rate the tab!
1 2 3 4 5
comments
print report bad tab
guest
You may want to rate the tab now too:
select rating
Wanna post a correction for this tab? Suggest correction