Oops, an error
Loading. Please wait.

The Sea Of Cortez Tab

117 views 6 this week
no commentswrite comment
1 2 3 4 5
please rate
add to favorites
launch autoscroll
font size
0
reset
how to read this tab
guitar tuner
Tab Pro tools
  • play this tab
  • loop segment
  • change instrument
  • show fretboard
  • metronome
×
Best way to learn
"The Sea Of Cortez"
Autoscroll
slow
fast
+/-
esc
set tempo
stop
Contributor
Title: The Sea of Cortez
Album: 30 Degrees Everywhere
Tabbed by: Kris Johansen - krisjohansen@guitarsrule.com
Tuning: EADGBE (Standard)

Note: I think this song is in 6/8 time.

Do this next part behind the bridge like on an SG or Les Paul.
So if you cant do this you better go buy a whole new guitar right now
in order to achieve this sonic feat.

e-0----------|
B---0--------|
G-----0------|
D-------0----|
A---------0--|
E-----------0|

Intro bit - Rhythm 1 2+ 3+

      2x                   1x
e-------------------|--------------------------------------------------|
B-------------------|--------------------------------------------------|
G---5---7---9--10---|---5---7--9--10---9--10---------------------------|
D-------------------|--------------------------------------------------|
A---3---5---7---8---|---3---5--7--8----7---8---------------------------|
E-------------------|--------------------------------------------------|


The 2nd time through the bridge you end on the E chord. then to
the picking bit.

    G     C       F
e-----------------------|-----------------------------------------------|
B-----------------------|-----------------------------------------------|
G---0-~---0--~----0-~---|---------9--9--9-------------------------------|
D---0-~---0--~----0-~---|-----------------------------------------------|
A---5-~---10-~----3-~---|---------7--7--7-------------------------------|
E---3-~---8--~----1-~---|-----------------------------------------------|


Verse - strum 1 2+ 3+ for each chord

Two different ways of playing it. see which one you prefer.

e---2-----3-----2-----3---|---------------------------------------------|
B---3-----3-----3-----3---|--7--8---7---8-------------------------------|
G---0-----0-----0-----0---|--0--0---0---0-------------------------------|
D---0-----0-----0-----0---|--0--0---0---0-------------------------------|
A---2-----2-----3-----3---|---------------------------------------------|
E-------------------------|--7--7---8---8-------------------------------|

Then play the intro part again where Daveys singing over the top
of it this time.

The Picking part - "when the motor stops i cant sleep..."

Play it a bit messier than below.

e---------------------------------|-------------------------------------|
B---------------------------------|-------------------------------------|
G--------0----------------0-------|-------0-------------0---------------|
D----0-------0------0----------0--|--0--------0-----0-------0-----------|
A--5---5---5------2----2----2-----|3---3----3-----0---0---0-------------|
E---------------------------------|-------------------------------------|



e---------------------------------|-------------------------------------|
B---------------------------------|-------------------------------------|
G----------0---------------0------|---------0--------------0------------|
D----0---------0-----0---------0--|----0---------0----0---------0-------|
A--2----2----2--------------------|--0---0-----0----0---0-----0---------|
E------------------3----3----3----|--5---5-----5----5---5-----5---------|


The Bridge ("of the moooooooon...") - Just G, C, F.

I think it ends on

e-0
B-7
G-0
D-0
A-7
E-0

And there you have it. Enjoy!
comments
We did not receive enough feedback on this tab! Please rate:
print report bad tab
1 2 3 4 5
I want to post or [tab]
guest
You may want to rate the tab now too:
select rating
Please do not post tabs as comments. Select "correction" instead!