Oops, an error
Loading. Please wait.

Forever Now Bass Tab

927 views 1 this week
no commentswrite comment
1 2 3 4 5
please rate
add to favorites
launch autoscroll
font size
0
reset
guitar tuner
Tab Pro tools
  • play this tab
  • loop segment
  • change instrument
  • show fretboard
  • metronome
×
Best way to learn
"Forever Now"
Autoscroll
slow
fast
+/-
esc
set tempo
stop
Contributor
Difficulty
novice
FOREVER NOW
The Psychedelic Furs

Taken from the Columbia/Legacy album Forever Now (1982/2002 Reissue)

Transcribed by: Damian Pamminger (TwitcheD_85@hotmail.com)

Standard tuning: E A D G

Fig. 1
|----------------------------------------------------------------------|
|--------------------------5---7---3-3-3-3-3-3-3-3---------------------|
|-3-3-3-3-3-3-3-5-3-3-3-3--------------------------5-5-5-5-5-5-5-5-----|
|----------------------------------------------------------------------|

Fig. 2a
| ---------------------------------------------------------------------|
| ---------------------------------------------------------------------|
|-3-3-3-3-3-3-3-5-3-3-3-3-3-3-3----------------------------------------|
|--------------------------------0-1-1-1-1-1-1-1-0-1-1-1-1-1-1-1-0-----|

Fig. 2b
|----------------------------------------------------------------------|
|----------------------------------------------------------------------|
|-3-3-3-3-3-3-3-5-3-3-3-3----------------------------------------------|
|--------------------------3---5---1-1-1-1-1-1-1-0-1-1-1-1-1-1-1-0-----|

Fig. 3
|-------------------------------------------------------------------- |--------------|
|------------------3-3-3-3-3-3-3-3---------------------------------- |--REPEAT-------|
|-1-1-1-1-1-1-1-1------------------3-3-3-3-3-3-3-3-3-3-3-3-3-3-3-3-|-three-more------|
|-------------------------------------------------------------------- |---times------|

Fig. 4
|-5-5-5-5-5-5-5-5-5-5-4---5---7--------------------7-7-7-7-7-7-7-3-|-------------|
|----------------------------------3-3-3-3-3-3-3-3/----------------- |-REPEAT----|
|--------------------------------------------------------------------|-----------|
|--------------------------------------------------------------------|-----------|

Fig. 5
|----------------------------------------- |-------------|
|-------------------------2-2---2-2-0-----|--REPEAT------|
|-0-------3-------2-------------------2-3-|-two-more-----|
|----------------------------------------- |---times-----|

|-------------------------------------------|
|-------------------------2-2---2-2-0-------|
|-0-------3-------2-------------------2-----|
|-------------------------------------------|
comments
We did not receive enough feedback on this tab! Please rate:
print report bad tab
1 2 3 4 5
I want to post or [tab]
guest
You may want to rate the tab now too:
select rating
Please do not post tabs as comments. Select "correction" instead!