Oops, an error
Loading. Please wait.

Ghost In You Bass Tab

2,080 views 1 this week
no commentswrite comment
1 2 3 4 5
please rate
add to favorites
launch autoscroll
font size
0
reset
guitar tuner
Tab Pro tools
  • play this tab
  • loop segment
  • change instrument
  • show fretboard
  • metronome
×
Best way to learn
"Ghost In You"
Autoscroll
slow
fast
+/-
esc
set tempo
stop
Contributor
Difficulty
novice
THE GHOST IN YOU
The Psychedelic Furs

Taken from the Columbia album Mirror Moves (1984)

Transcribed by: Damian Pamminger (TwitcheD_85@hotmail.com)

Standard tuning: E A D G

Fig. 1
|--------------------------------------------------------------------------------|
|--------------------------------------------------------------------------------|
|-------------------------------6----6--6-----6----6--6---6----------------------|
|-6----6--6-----6----6--6---6--------------------------------6----6--6-----6-----|

|------------------------------------------|
|------------------------------------------|
|-----------6----6--6-----6----6--6--------|
|-6--6---6---------------------------------|

Fig. 2a
|--------------------------------------------------------------------------------|
|--------------------------------------------------------------------------------|
|-6----6--6-----6----6--6---6--5----5--5-----5----5--5---5--6----6--6----6-------|
|--------------------------------------------------------------------------------|

|------------------------------------------|
|------------------------------------------|
|-6--6---6--5----5--5-----5----5--5---6----|
|------------------------------------------|

Fig. 2a
|--------------------------------------------------------------------------------|
|--------------------------------------------------------------------------------|
|-6----6--6-----6----6--6---6--5----5--5-----5----5--5---5--6----6--6----6-------|
|--------------------------------------------------------------------------------|

|-----------------------------------------------|
|-----------------------------------------------|
|-6--6---6--5----5--5-----5----5--5--5--5--5----|
|-----------------------------------------------|

Fig. 3
| ---------------------------------------------------------------------------------|
| ---------------------------------------------------------------------------------|
|-8--8--8--8--8--8--8--8--8--8--8--8--8--8--8--6--6--6--6--6--6--6--6--6--6--6-----|
| ---------------------------------------------------------------------------------|

|------------------|
|------------------|
|-6--6--6--6--6----|
|------------------|
comments
We did not receive enough feedback on this tab! Please rate:
print report bad tab
1 2 3 4 5
I want to post or [tab]
guest
You may want to rate the tab now too:
select rating
Please do not post tabs as comments. Select "correction" instead!