Oops, an error
Loading. Please wait.

Ghost In You Chords

version 3
version 3

Whole song

6,526 views 105 this week
2 commentsread comments
1 2 3 4 5
excellent!
x 26
add to favorites
launch autoscroll
font size
0
reset
transpose
0
reset
display chords
guitar tuner
Tab Pro tools
  • play this tab
  • loop segment
  • change instrument
  • show fretboard
  • metronome
×
Best way to learn
"Ghost In You"
Autoscroll
slow
fast
+/-
esc
set tempo
stop
Contributor
Difficulty
novice
-------------------------------------------------------------------------------
                            The Ghost in You
-------------------------------------------------------------------------------
             
ARTIST: The Psychedelic Furs
ALBUM:  Mirror Moves
YEAR: 1984

tabbed by : pp1pete
Difference from other tabs
 [full lyrics and chords
 [Plays with original
 [easier chord progression
 [added introduction
 [musical bridge chords)
 [correct rubric
 [registered and active user - I can take comments and make corrections

CAPO: 3                                           nc
TUNING: standard

notes: 

This version plays with the album version

the Furs have played this basically the same way on several live gigs: 
they have used no capo ( SF 2009 - https://www.youtube.com/watch?v=WkqDLiQ4U2w  )
they have used capo 1 (Aspen 2010 - https://www.youtube.com/watch?v=l1R9m6pOI0I  )


---INTRO--- (and can be used for verse)   

    G                     C                   G                     C                            
e||--------------------:--------------------:---------------------:--------------------||
B||--1-0---------------:-1-0--------------0-:--1-0----------------:-1-0--------------0-||
G||------0-------------:-----0------0---2---:------0--------------:-----0------0---2---||
D||--------0-0-0-2-0-2-:-------0-0-2--0-----:--------0-0-0-2-0-2--:-------0-0-2--0-----||
A||--------------------:3-------------------:---------------------:3-------------------||
E||3-------------------:--------------------:3--------------------:--------------------||


      C                   Bm                    C                     Bm                          
e||--------------------:--------------------:---------------------:--------------------||
B||--1-0---------------:-----0---------0----:--1-0----------------:-----0----------0---||
G||------0-------------:-2-2-------2-2------:------0--------------:-2-2--------2-2-----||
D||--------0-0-2-0-2---:-------2-0-------2-0:--------0-0-2-0-2----:-------2-0-------2-0||
A||3-------------------:--------------------:3--------------------:--------------------||
E||--------------------:--------------------:---------------------:--------------------||   
                 

---VERSE 1---

  G                                   C
A man in my shoes runs the light, and all the papers lie tonight but

G                       C
falling over you is the news of the day.

C                Bm
Angels fall like rain.

C                                Bm           D
And love (love, love), is all of heaven away.


---CHORUS---
   D                          C
Inside you the time moves and she don’t fade.

    D                        C
The ghost in you she don’t fade.

  D                           C
Inside you the time moves and she don’t fade.


---VERSE 2---

    G                                C
The race is on I’m on your side, and hearing you my engines die, I’m

G                         C
in a mood for you, or for running away.

C                  Bm
Stars come down in you.

C                       G        Bm            D
And love (love, love), you can’t give it away.


---CHORUS---

  D                           C
Inside you the time moves and she don’t fade.

    D                      C
The ghost in you she don’t fade.

   D                          C
Inside you the time moves and she don’t fade. In you…


---BRIDGE---

G   C   G   C
C   Bm  C   Bm


---VERSE 3---

G                                    C
Don’t you go it makes no sense when, all you talking supermen just

G                       C
take away the time, and get in the way.

C                  Bm
Ain’t it just like rain? And

C                         Bm           D
love (love, love) is only heaven away.


---CHORUS---

   D                          C
Inside you the time moves and she don’t fade.

    D                      C
The ghost in you she don’t fade.

   D                          C
Inside you the time moves and she don’t fade.

    G                       C
The ghost in you she don’t fade. 

REPEAT
comments
print report bad tab
2 comments total.
0 reply
flickh wrote on April 2 2016, 11:24 pm

I don't get it - the Bm sounds totally wrong to me. What am I missing?

0 reply
pp1pete wrote on April 4 2016, 08:11 pm

I revisited and tightened up the formatting, tweaked the chord timing, and added the transition chord at the end of the verses - there was also a chord in the chorus I didn't like so I removed. Maybe this solves your concern - let me know!

I want to post or [tab]
guest
You may want to rate the tab now too:
select rating
Please do not post tabs as comments. Select "correction" instead!