Oops, an error
Loading. Please wait.

Here Come Cowboys Bass Tab

631 views 3 this week
no commentswrite comment
1 2 3 4 5
excellent!
x 1
add to favorites
launch autoscroll
font size
0
reset
guitar tuner
Tab Pro tools
  • play this tab
  • loop segment
  • change instrument
  • show fretboard
  • metronome
Autoscroll
slow
fast
+/-
esc
set tempo
stop
Contributor
Difficulty
novice
HERE COME COWBOYS
The Psychedelic Furs

Taken from the Columbia album Mirror Moves (1984)

Transcribed by: Damian Pamminger (TwitcheD_85@hotmail.com)

Standard tuning: E A D G

Fig. 1
|------------------------------------------------------------------------|
|------------------------------------------------------------------------|
|-5-5-5-5-5-5-5-5-5-5-5-5-5-5-5------------------------------------------|
| --------------------------------5-7-7-7-7-7-7-7-7-7-7-7-7-7-7-7-5------|

Fig. 2a
|------------------------------------------------------------------- |--------------|
|------------------------------------------------------------------- |---REPEAT-----|
|------------------------------------7-7----7-7-7---5-5-5-5-5-5-5-- |-three-more----|
|-8-8-8-8-8-8-8-8-8-8-8-8-8-8-8-8-0-----0--------0---------------5-|---times--------|

Fig. 2a
|------------------------------------------------------------------- |------------|
|------------------------------------------------------------------- |--REPEAT----|
|------------------------------------7-7----7-7-7---5-5-5-5-5-5-5-- |-two-more----|
|-8-8-8-8-8-8-8-8-8-8-8-8-8-8-8-8-0-----0--------0---------------5-|---times------|

|----------------------------------------------------------------------|
|----------------------------------------------------------------------|
|----------------------------------------------------------------------|
|-8-8-8-8-8-8-8-8-8-8-8-8-8-8-8-8-8-8-8-8-8-8-8-8-8-8-8-8-8-8-8-8------|
comments
We did not receive enough feedback on this tab! Please rate:
print report bad tab
1 2 3 4 5
I want to post or [tab]
guest
You may want to rate the tab now too:
select rating
Please do not post tabs as comments. Select "correction" instead!