Oops, an error
Loading. Please wait.

Love My Way Bass Tab

version 1
version 1

Whole song

Interactive

4,443 views 1 this week
no commentswrite comment
1 2 3 4 5
please rate
add to favorites
launch autoscroll
font size
0
reset
guitar tuner
Tab Pro tools
  • play this tab
  • loop segment
  • change instrument
  • show fretboard
  • metronome
×
Best way to learn
"Love My Way"
Autoscroll
slow
fast
+/-
esc
set tempo
stop
Contributor
Difficulty
novice
LOVE MY WAY
The Psychedelic Furs

Taken from the Columbia/Legacy album Forever Now (1982/2002 Reissue)

Transcribed by: Damian Pamminger (TwitcheD_85@hotmail.com)

Standard tuning: E A D G

Fig. 1
| --------------------------------------------------|
| --------------------------------------------------|
| --------------------------------------------------|
|-6--8--8----8---------5--7--7----7--\--------------|

Fill
|-------|
|-------|
|-15-\--|
|-------|

Fig. 2
|---------------------------------------------------------------------------------|
|---------------------------------------------------------------------------------|
|--------------------------------------------------------8-----------------8------|
|-8-8-8-8-8-8-8-8-8-8-8-8-8-8-8-8-10-10-10-10-10-10-10--10-10-10-10-10---10-------|

|------------------------------------------------------------------------------------|
|------------------------------------------------------------------------------------|
|-8--------------------------------------------------------8-----------------8-------|
|---8-8-8-8-8-8-8-8-8-8-8-8-8-8-8-8-10-10-10-10-10-10-10---10-10-10-10-10---10-------|
comments
We did not receive enough feedback on this tab! Please rate:
print report bad tab
1 2 3 4 5
I want to post or [tab]
guest
You may want to rate the tab now too:
select rating
Please do not post tabs as comments. Select "correction" instead!