Oops, an error
Loading. Please wait.

Pretty In Pink Bass Tab

version 1
version 1

Whole song

4,199 views 15 this week
no commentswrite comment
1 2 3 4 5
accurate
x 3
add to favorites
launch autoscroll
font size
0
reset
guitar tuner
Tab Pro tools
  • play this tab
  • loop segment
  • change instrument
  • show fretboard
  • metronome
×
Best way to learn
"Pretty In Pink"
Autoscroll
slow
fast
+/-
esc
set tempo
stop
Contributor
Difficulty
intermediate
Intro (1 measure no bass)

Verse:
G |--------------------------------|
D |--------------------------------|x1
A |-55-0h2-5-2---------------------|
E |------------5-33--3-5-----------|

Caroline laughs and
G |--------------------------------|
D |-----------2-4-5----------------|x4
A |-5-55-3-33----------------------|
E |----------------55--------------|
And her lovers walk through in their coats…

Chorus:
She’s…Pretty in pink
G |------------------------|--------------------------------|
D |--2-22-4-44-5-7-9--4-4--|-2-22-4-44-5-55-4-44------------|
A |------------------------|--------------------------------|
E |------------------------|--------------------------------|

All of her lovers all talk of her notes…
G |--------------------------------|
D |-----------2-4-5----------------|x4
A |-5-55-3-33----------------------|
E |----------------55--------------|
But the joke's the same

Chorus:
She’s…Pretty in pink
G |------------------------|--------------------------------|
D |--2-22-4-44-5-7-9--4-4--|-2-22-4-44-5-55-4-44------------|
A |------------------------|--------------------------------|
E |------------------------|--------------------------------|

Instrumental:
G |--------------------------------|
D |--------------------------------|x4
A |-55-0h2-5-2---------------------|
E |------------5-33--3-5-----------|

Caroline talks to you softly sometimes
G |--------------------------------|
D |-----------2-4-5----------------|x4
A |-5-55-3-33----------------------|
E |----------------55--------------|
These cars collide

Chorus:
She’s…Pretty in pink
G |------------------------|--------------------------------|
D |--2-22-4-44-5-7-9--4-4--|-2-22-4-44-5-55-4-44------------|
A |------------------------|--------------------------------|
E |------------------------|--------------------------------|

G |--------------------------------|
D |--------------------------------|x8
A |-55-0h2-5-2---------------------|
E |------------5-33--3-5-----------|
comments
We did not receive enough feedback on this tab! Please rate:
print report bad tab
1 2 3 4 5
I want to post or [tab]
guest
You may want to rate the tab now too:
select rating
Please do not post tabs as comments. Select "correction" instead!