Oops, an error
Loading. Please wait.

Fimbul Tab

67 views 1 this week
no commentswrite comment
1 2 3 4 5
please rate
add to favorites
launch autoscroll
font size
0
reset
how to read this tab
guitar tuner
Tab Pro tools
  • play this tab
  • loop segment
  • change instrument
  • show fretboard
  • metronome
×
Best way to learn
"Fimbul"
Autoscroll
slow
fast
+/-
esc
set tempo
stop
Contributor
Tuning
B F# B E G# C#
The Psyke Project - Daikini

Tabbed by Emil Brix Hiltmar


.  - Palm mute
x  - Mute with left hand
/7 - Slide into the note
7/ - Slide from the note
b  - Bend the note
xTIMES - play it x times
________________________________________


Track 4. - FIMBUL

Tuning: Drop B

Brilliant and quite simple song.

*FIND YOUR UGLIEST GUITAR TONE FOR THE INTRO-RIFF*

Intro [10's on the 4th string, not 1's and 0's] 
C#|---------------------------------------------------------------------------|
G#|----16TIMES----8TIMES-----8TIMES-------------------------------------------|
E |---------------------------------------------------------------------------|
B |--7----------8---------10--------------------------------------------------|
F#|--0----------0----------0--------------------------------------------------|
B |---------------------------------------------------------------------------|


Riff 1 [If you hit the open 6th string (B) during the octaves, that is just A-OK!]
C#|---------------------------------------------------------------------------|
G#|-------------0--8TIMES---0--8TIMES-----------------------------------------|
E |------------10-----------8-------------------------------------------------|
B |-------------0-----------0-------------------------------------------------|
F#|-------------8-----------6-------------------------------------------------|
B |--1b----0------------------------------------------------------------------|


Fill 1
C#|---------------------------------------------------------------------------|
G#|------16TIMES-----16TIMES--------------------------------------------------|
E |--15----------12-----------------------------------------------------------|
B |---0-----------0-----------------------------------------------------------|
F#|--13----------10-----------------------------------------------------------|
B |---0-----------0-----------------------------------------------------------|


Riff 2
GUITAR 1 [The octave is quite hard to hear]:
C#|---------------------------------------------------------------------------|
G#|------------------16TIMES--------------------------------------------------|
E |---------------8-----------------------------------------------------------|
B |---------------0-----------------------------------------------------------|
F#|---------------6-----------------------------------------------------------|
B |--1b1b----0----------------------------------------------------------------|



GUITAR 2 [Just keep playing that string :)]:
C#|---------------------------------------------------------------------------|
G#|----------------------INFINITY-TIMES---------------------------------------|
E |---------------------------------------------------------------------------|
B |---------------------------------------------------------------------------|
F#|---------------------------------------------------------------------------|
B |--0-0-0-0-0-0-0-0-0-0-0----------------------------------------------------|
     . . . . . . . . . . .


Fill 2 [Feel free to play other strings open. Noise is good.]
C#|---------------------------------------------------------------------------|
G#|------16TIMES-----8TIMES------8TIMES---------------------------------------|
E |--10-----------8----------15-----------------------------------------------|
B |---0-----------0-----------0-----------------------------------------------|
F#|---8-----------6----------13-----------------------------------------------|
B |---------------------------------------------------------------------------|


Riff 3
C#|---------------------------------------------------------------------------|
G#|----------------------INFINITY-TIMES---------------------------------------|
E |---------------------------------------------------------------------------|
B |---------------------------------------------------------------------------|
F#|---------------------------------------------------------------------------|
B |--0-0-0-0-0-0-0-0-0-0-0----------------------------------------------------|


Fill 3 [Guitar 2 keeps playing riff 3]
C#|---------------------------------------------------------------------------|
G#|------16TIMES------16TIMES-------------------------------------------------|
E |--15-----------12-----------12-12-/14--------------------------------------|
B |---0------------0------------0--0---0--------------------------------------|
F#|--13-----------10-----------10-10-/12--------------------------------------|
B |---------------------------------------------------------------------------|


Riff 4 [Play along with the snare drum]
C#|---------------------------------------------------------------------------|
G#|---------------------------------------------------------------------------|
E |---------------------------------------------------------------------------|
B |---------------------------------------------------------------------------|
F#|---------------------------------------------------------------------------|
B |--0-0-0-0-0-0-0-0-0--------------------------------------------------------|
     . . . . . . . . .


Riff 5 [Fight the urge to start headbanging. Play fill 1 after the 3rd time]
C#|---------------------------------------------------------------------------|
G#|---------------------------------------------------------------------------|
E |---------------------------------------------------------------------------|
B |---------------0--0--0--0--------------------------------------------------|
F#|---------------0--0--0--0--------------------------------------------------|
B |--1b1b----0----0--0--0--0--------------------------------------------------|
                  .  .  .  .


Riff 6 [Put fill 2 after the 3rd time. Give in to the urge]
C#|---------------------------------------------------------------------------|
G#|---------------------------------------------------------------------------|
E |---------------------------------------------------------------------------|
B |---------------0-0-0-0-0-0-0-0---------------------------------------------|
F#|---------------0-0-0-0-0-0-0-0---------------------------------------------|
B |--1b1b-1b--0---0-0-0-0-0-0-0-0---------------------------------------------|
                  . . . . . . . .


End
Guitar 1 [Just plays an open 6th string]:

Guitar 2 [Octaves from before. PM if you want me to add this part :)]

comments
We did not receive enough feedback on this tab! Please rate:
print report bad tab
1 2 3 4 5
I want to post or [tab]
guest
You may want to rate the tab now too:
select rating
Please do not post tabs as comments. Select "correction" instead!