Oops, an error
Loading. Please wait.

In The Mist Tab

256 views 1 this week
no commentswrite comment
1 2 3 4 5
please rate
add to favorites
launch autoscroll
font size
0
reset
how to read this tab
guitar tuner
Autoscroll
slow
fast
+/-
esc
set tempo
stop
Help us to improve Ultimate-Guitar.com Take our survey!
×
Author
Tuning
B F# B E G# C#
The Psyke Project
Album - "Daikini"

Tabbed by Emil Brix Hiltmar


.  - Palm mute
x  - Mute with left hand
/7 - Slide into the note
7/ - Slide from the note
b  - Bend the note
3times - play the riff three times
________________________________________


Track 3. - IN THE MIST

Tuning: Drop B

This one isn't very detailed, mostly because tabbing (for me at least) is very time consuming.
I'm sure you'll figure it out anyway, as long as you follow the song (and why wouldn't you?). 

*FEEDBACK*

Riff 1 [the notes are twelves and thirteens :)] 
C#|---------------------------------------------------------------------------|
G#|---------------------------------------------------------------------------|
E |---------------------------------------------------------------------------|
B |-0--0--0--13-13-13-13--0--0--0--13-13-13-13-13-13-13-13--------------------|
F#|-0--0--0---x--x--x--x--0--0--0---x--x--x--x--x--x--x--x--------------------|
B |-0--0--0--12-12-12-12--0--0--0--12-12-12-12-12-12-12-12--------------------|
    .  .  .               .  .  .


Riff 2
C#|---------------------------------------------------------------------------|
G#|---------------------------------------------------------------------------|
E |---------------------------------------------------------------------------|
B |-0--0--0--15-15-15-15--0--0--0--15-15-15-15-13-13-13-13--------------------|
F#|-0--0--0---x--x--x--x--0--0--0---x--x--x--x--x--x--x--x--------------------|
B |-0--0--0--12-12-12-12--0--0--0--12-12-12-12-12-12-12-12--------------------|
    .  .  .               .  .  .


Riff 3 [Also thirteens, twelves and tens]
C#|---------------------------------------------------------------------------|
G#|---------------------------------------------------------------------------|
E |-------3times----------then------------------------------------------------|
B |--8---8------8---------8--8--8--8--8--8--8--8--8--8--8--8------------------|
F#|-13--12--0--10--------13-13-13-13-13-13-13-13-10-10-10-10------------------|
B |--0---0--0---0---------0--0--0--0--0--0--0--0--0--0--0--0------------------|
            .   


Riff 4 
C#|---------------------------------------------------------------------------|
G#|---------------------------------------------------------------------------|
E |-----3times-----------then-------------------------------------------------|
B |--8---8--------------------------------------------------------------------|
F#|-13--12--0-----------------------------------------------------------------|
B |--0---0--0--1---------12b-12b-12b-12b-12b-12b-12b-12b-12b------------------|
            .   

Fill 1
C#|---------------------------------------------------------------------------|
G#|---------------------------------------------------------------------------|
E |---------------------------------------------------------------------------|
B |-0-0-0-0-0-0-0-0-----------------------------------------------------------|
F#|-0-0-0-0-0-0-0-0-----------------------------------------------------------|
B |-0-0-0-0-0-0-0-0-----------------------------------------------------------|
    . . . . . . . .


Riff 6 [I made the spaces quite big to make it easier for your eyes]
C#|---------------------------------------------------------------------------|
G#|---------------------------------------------------------------------------|
E |------------14-14-14-14-17-17-17-17-15-15-15-15----------------------------|
B |-------------0--0--0--0--0--0--0--0--0--0--0--0----------------------------|
F#|------------12-12-12-12-15-15-15-15-13-13-13-13----------------------------|
B |-0--0--0--0--0--0--0--0--0--0--0--0--0--0--0--0----------------------------|



Riff 6 continued
C#|---------------------------------------------------------------------------|
G#|---------------------------------------------------------------------------|
E |------------------14-14-14-14-18-18-18-18-18-18----------------------------|
B |-------------------0--0--0--0--0--0--0--0--0--0----------------------------|
F#|------------------12-12-12-12-16-16-16-16-16-16----------------------------|
B |-0--0--0--0--0--0--0--0--0--0--0--0--0--0--0--0----------------------------|



Fill 2
C#|---------------------------------------------------------------------------|
G#|---------------------------------------------------------------------------|
E |-6-6-6-6-6-6-6-6-----------------------------------------------------------|
B |-0-0-0-0-0-0-0-0-----------------------------------------------------------|
F#|-4-4-4-4-4-4-4-4-----------------------------------------------------------|
B |---------------------------------------------------------------------------|



Riff 7 [I WILL NOT TURN AWAY, I KNOW WHERE MY HEART IS]
C#|---------------------------------------------------------------------------|
G#|---------------------------------------------------------------------------|
E |------------14-14-14-14-17-17-17-17-15-15-15-15----------------------------|
B |-0--0--0--0--0--0--0--0--0--0--0--0--0--0--0--0----------------------------|
F#|-0--0--0--0-12-12-12-12-15-15-15-15-13-13-13-13----------------------------|
B |-0--0--0--0--0--0--0--0--0--0--0--0--0--0--0--0----------------------------|
    .  .  .  .


Riff 7 continued
C#|---------------------------------------------------------------------------|
G#|---------------------------------------------------------------------------|
E |------------------14-14-14-14-18-18-18-18-18-18----------------------------|
B |-0--0--0--0--0--0--0--0--0--0--0--0--0--0--0--0----------------------------|
F#|-0--0--0--0--0--0-12-12-12-12-16-16-16-16-16-16----------------------------|
B |-0--0--0--0--0--0--0--0--0--0--0--0--0--0--0--0----------------------------|
    .  .  .  .  .  .

Fill 3
C#|---------------------------------------------------------------------------|
G#|---------------------------------------------------------------------------|
E |-18181818181818181313131313131313------------------------------------------|
B |-0-0-0-0-0-0-0-0-0-0-0-0-0-0-0-0-------------------------------------------|
F#|-16161616161616161111111111111111------------------------------------------|
B |-0-0-0-0-0-0-0-0-0-0-0-0-0-0-0-0-------------------------------------------|


Riff 8
C#|---------------------------------------------------------------------------|
G#|---------------------------------------------------------------------------|
E |-9-9-9-9-9-9-9-9-10101010101010101010101010--------------------------------|
B |-0-0-0-0-0-0-0-0-0-0-0-0-0-0-0-0-0-0-0-0-0---------------------------------|
F#|-7-7-7-7-7-7-7-7-8-8-8-8-8-8-8-8-8-8-8-8-8---------------------------------|
B |-0-0-0-0-0-0-0-0-0-0-0-0-0-0-0-0-0-0-0-0-0---------------------------------|


Riff 8 continued
C#|---------------------------------------------------------------------------|
G#|---------------------------------------------------------------------------|
E |-1818181818181818----------------------------------------------------------|
B |-0-0-0-0-0-0-0-0-----------------------------------------------------------|
F#|-1616161616161616----------------------------------------------------------|
B |-0-0-0-0-0-0-0-0-----------------------------------------------------------|


Riff 9
C#|---------------------------------------------------------------------------|
G#|---------------------------------------------------------------------------|
E |-101010101010101010101010101010101010101010--------------------------------|
B |-0-0-0-0-0-0-0-0-0-0-0-0-0-0-0-0-0-0-0-0-0---------------------------------|
F#|-8-8-8-8-8-8-8-8-8-8-8-8-8-8-8-8-8-8-8-8-8---------------------------------|
B |-0-0-0-0-0-0-0-0-0-0-0-0-0-0-0-0-0-0-0-0-0---------------------------------|


Riff 9 continued
C#|---------------------------------------------------------------------------|
G#|---------------------------------------------------------------------------|
E |-1818181818181818----------------------------------------------------------|
B |-0-0-0-0-0-0-0-0-----------------------------------------------------------|
F#|-1616161616161616----------------------------------------------------------|
B |-0-0-0-0-0-0-0-0-----------------------------------------------------------|


Fill 4 (Guitar 2 continues to play riff 9 while the other guitar plays this)
C#|---------------------------------------------------------------------------|
G#|---------------------------------------------------------------------------|
E |-7-7-7-7-7-7-7-7-6-6-6-6-6-6-6-6-------------------------------------------|
B |-0-0-0-0-0-0-0-0-0-0-0-0-0-0-0-0-------------------------------------------|
F#|-5-5-5-5-5-5-5-5-4-4-4-4-4-4-4-4-------------------------------------------|
B |---------------------------------------------------------------------------|


Riff 10
C#|---------------------------------------------------------------------------|
G#|---------------------------------------------------------------------------|
E |---------------------------------------------------------------------------|
B |-0--0--0--0-0-0-0--0--0--0--0-0-0-0-0-0-0-0--------------------------------|
F#|-0--0--0--0-0-0-0--0--0--0--0-0-0-0-0-0-0-0--------------------------------|
B |-0--0--0--0-0-0-0--0--0--0--0-0-0-0-0-0-0-0--------------------------------|
    .  .  .  . . . .  .  .  .  . . . . . . . .        


Riff 11 x7 with fill 5 the 8th time
C#|---------------------------------------------------------------------------|
G#|---------------------------------------------------------------------------|
E |-----------8--8--8--8------------8--8--8--8--8--8--8--8--------------------|
B |-0--0--0--12-12-12-12--0--0--0--12-12-12-12-12-12-12-12--------------------|
F#|-0--0--0---------------0--0--0---------------------------------------------|
B |-0--0--0---------------0--0--0---------------------------------------------|
    .  .  .               .  .  .

Fill 5
C#|---------------------------------------------------------------------------|
G#|---------------------------------------------------------------------------|
E |-----------8--8--8--8--8--8--8--8--8--8--8--8--8--8--8--8------------------|
B |-0--0--0--12-12-12-12-12-12-12-12-12-12-12-12-12-12-12-12------------------|
F#|-0--0--0-------------------------------------------------------------------|
B |-0--0--0-------------------------------------------------------------------|
    .  .  .

Riff 11 variation
C#|---------------------------------------------------------------------------|
G#|---------------------------------------------------------------------------|
E |-----------8--8--8--8------------8--8--8--8---------8--8--8--8--8--8--8--8-|
B |-0--0--0--12-12-12-12--0--0--0--12-12-12-12--0--0--12-12-12-12-12-12-12-12-|
F#|-0--0--0---------------0--0--0---------------0--0--------------------------|
B |-0--0--0---------------0--0--0---------------0--0--------------------------|
    .  .  .               .  .  .               .  .

Last breakdown:
C#|---------------------------------------------------------------------------|
G#|---------------------------------------------------------------------------|
E |---------------------------------------------------------------------------|
B |-0--0--0---------------0--0--0---------------0--0--------------------------|
F#|-0--0--0---------------0--0--0---------------0--0--------------------------|
B |-0--0--0---------------0--0--0---------------0--0--------------------------|
    .  .  .               .  .  .               .  .


FÆRDIG!


6 billion(s) thanks to Christian Bonnesen for corrections!
Suggest correction
Give kudos to tab author, rate the tab!
1 2 3 4 5
comments
print report bad tab
guest
You may want to rate the tab now too:
select rating
Please do not post tabs as comments. Select "correction" instead!