Oops, an error
Loading. Please wait.

I Miss You Tab

version 2
version 2

Whole song

730 views 3 this week
no commentswrite comment
1 2 3 4 5
3 more votes to show rating
add to favorites
launch autoscroll
font size
0
reset
how to read this tab
guitar tuner
Autoscroll
slow
fast
+/-
esc
set tempo
stop
Help us to improve Ultimate-Guitar.com Take our survey!
×
Author
Difficulty
intermediate
-------------------------------------------------------------------------------
                             “I Miss You” – The Quakes
-------------------------------------------------------------------------------
Tabbed by: TaTushka90
E-mail: totlynx@yahoo.com

Tuning: Standard

Acoustic Intro/Verse: Dm, Am, Gm *I recommend using Open Chords for the Intro, then 
utilizing the Power Chords for the Verse.

Power Chords for Verse:
         Dm           Am            Gm
e|------10------------5-------------3--------------------------------------|
B|------10------------5-------------3--------------------------------------|
G|------10------------5-------------3--------------------------------------|
D|------1012----------57------------35-------------------------------------|
A|------1012----------57------------35-------------------------------------|
E|------10------------5-------------3--------------------------------------|
Intro Acoustic Riff:
e|-----5555-3-—-6\5--------------------------------------------------------|
B|-----------5-------------------------------------------------------------|
G|-------------------------------------------------------------------------|
D|-------------------------------------------------------------------------|
A|-------------------------------------------------------------------------|
E|-------------------------------------------------------------------------|
Electric/Lead Guitar Riff:      *Complete this riff with the Acoustic riff shown above
e|------------------------3/5-----------------------------------------------|
B|---------6\5--3-5b~3--3----5~---------------------------------------------|
G|---2-2/5------------------------------------------------------------------|
D|--------------------------------------------------------------------------|
A|--------------------------------------------------------------------------|
E|--------------------------------------------------------------------------|
Chorus: Dm, Cm, A#m {Power Chords)
        Dm          Cm           A#m
e|--------------------------------------------------------------------------|
B|--------------------------------------------------------------------------|
G|-----77777777-----55555555-----33333333-----------------------------------|
D|-----77777777-----55555555-----33333333-----------------------------------|
A|-----55555555-----33333333-----11111111-----------------------------------|
E|--------------------------------------------------------------------------|
Bridge/Break After 2nd Chorus: *2nd Chorus ends with a Gm instead of the Cm to lead up 
to this chord progression.
Am, A#m, Cm, Dm “Our friends think were crazy….”
Am, A#m, Cm, Dm, Am.. “But baby don’t you listen…”
e|--------------5-----------------5------5----------5-----------------------|
B|--------------5-----------------5------5----------5-----------------------|
G|--------------5----3----5---7---5------5----3--5--5-----------------------|
D|--------------57---3----5---7---57-----57---3--5--57----------------------|
A|--------------57---1----3---5---57-----57---1--3--57----------------------|
E|--------------5-----------------5------5----------5-----------------------|
After Bridge, straight back into Chorus, ending on Dm~
Lyrics:

"I see your face in such a lonely place but you’re a million miles away.
I’ve got your photograph and you’ve got mine We said wed meet again someday. I won’t 
forget you and I won’t let you fade away.
I'll run beside you. I may decide to stay.

What place and forces in the universe are responsible for this?
I was rejected, when we connected, and you sealed it with your kiss.
I won’t defy you. I’ll be right by you all the way.
Sometimes it’s hard to find the words, the words to say.

I miss you, I miss you more and more each day.
I miss you, I miss you more than I can say.

I see your face in such a lonely place but you’re a million miles away.
I’ve got you photograph and you’ve got mine We said wed meet again someday.
I won’t forget you and I won’t let you fade away.
I'll run beside you. I may decide to stay. Okay.

Our friends think were crazy, we live so far away but baby don’t you listen don’t you 
listen to what they say

I miss you, I miss you more and more each day.
I miss you, I miss you more than I can say.
I miss you, I miss you more and more each day.
I miss you, I miss you more than I can say. Okay..."

 *That’s it, with the exception of a couple solo parts at the end, which utilize the 
same riff as the Lead Intro{shown above}
Enjoy!

************************************

| /   slide up
| \   slide down
| h   hammer-on
| p   pull-off
| ~   vibrato
| +   harmonic
| x   Mute note
| b   Bend
| pb  Pre-bend
| br  Bend release
| pbr Pre-bend release
| brb Bend release bend
Suggest correction
Give kudos to tab author, rate the tab!
1 2 3 4 5
comments
print report bad tab
guest
You may want to rate the tab now too:
select rating
Wanna post a correction for this tab? Suggest correction