Oops, an error
Loading. Please wait.

The Loser Bass Tab

1 view 1 this week
no commentswrite comment
1 2 3 4 5
3 more votes to show rating
add to favorites
launch autoscroll
font size
0
reset
guitar tuner
Autoscroll
slow
fast
+/-
esc
set tempo
stop
Help us to improve Ultimate-Guitar.com Take our survey!
×
Author
Difficulty
novice
Tabbed by: 6METAL6BASSIST6
E-mail: petergriffinav@gmail.com

Tuning: EADG

G|----------------------------------------------------------------|
D|----------------------------------------------------------------|
A|----------------------------------------------------------------|
E|----------------------------------------------------------------|

G|----------------------------10--8-------------------------------|
D|------------------------------------10--8-----------------------|
A|----------------------------------------------------------------|
E|----------------------------------------------------------------|

G|--------------------------------------------------------------------|
D|--------------------------------------------------------------------|
A|------------------------8-------------------------------------------|
E|--------------------------------------------------------------------|

0:18

G|----------------------------------------------------------------|
D|10----------10--10--10------10--9-----------9---9---9-------9---|
A|----------------------------------------------------------------|
E|----------------------------------------------------------------|

G|----------------------------------------------------------------|
D|8-----------8---8---8-------8-----------------------------------|
A|--------------------------------8---------------8---8-------8---|
E|----------------------------------------------------------------|

0:31

G|----------------------------------------------------------------|
D|10----------10--10--------------9-----------9---9---------------|
A|----------------------------------------------------------------|
E|----------------------------------------------------------------|

G|----------------------------------------------------------------|
D|8-----------8---8-----------------------------------------------|
A|--------------------------------8-----------8---8---------------|
E|----------------------------------------------------------------|

G|----------------------------------------------------------------|
D|----------------------------------------------------------------|
A|7-----------7---7---------------7-----------7---7-------7---9---|
E|----------------------------------------------------------------|

G|----------------------------------------------------------------|
D|7-----------7---7---7-------7---7---7-------7---7---7-------6---|
A|----------------------------------------------------------------|
E|----------------------------------------------------------------|

0:56

G|----------------------------------------------------------------|
D|----------------------------------------------------------------|
A|9-----------9---9---9-------9---9---9-------9---7-----9-9---8---|
E|----------------------------------------------------------------|

G|----------------------------------------------------------------|
D|----------------------------------------------------------------|
A|7-------7-----------------------------------------------7---9---|
E|----------------------------------------------------------------|

1:09

G|----------------------------------------------------------------|
D|7-----7-7-----------------------7-----7-7-------------------7---|
A|------------7-----------7---9---------------7-----------7-------|
E|----------------------------------------------------------------|

G|----------------------------------------------------------------|
D|10----------10--10--10------10--10--10------10--10--10----------|
A|----------------------------------------------------------------|
E|----------------------------------------------------------------|

1:21

G|----------------------------------------------------------------|
D|10----------10--10----------10--9-----------9---9-----------9---|
A|----------------------------------------------------------------|
E|----------------------------------------------------------------|

G|----------------------------------------------------------------|
D|8-----------8---8-----------8-----------------------------------|
A|--------------------------------8-----------8---8-----------8---|
E|----------------------------------------------------------------|

G|----------------------------------------------------------------|
D|----------------------------------------------------------------|
A|7-----------7---7---------------7-----------7---7-------7---9---|
E|----------------------------------------------------------------|

G|----------------------------------------------------------------|
D|7-----------7---7---7-------7---7---7-------7---7-----7-7---6---|
A|----------------------------------------------------------------|
E|----------------------------------------------------------------|

1:46

G|----------------------------------------------------------------|
D|----------------------------------------------------------------|
A|9-----------9---9---9-------9---9---9-------9---7-------9---8---|
E|----------------------------------------------------------------|

G|----------------------------------------------------------------|
D|----------------------------------------------------------------|
A|7-------7---------------------------------------------------9---|
E|----------------------------------------------------------------|

1:57

G|----------------------------------------------------------------|
D|7-----7-7-----------------------7-----7-7-----------------------|
A|------------7-----------7---9---------------7-----------7---7---|
E|----------------------------------------------------------------|

G|----------------------------------------------------------------|
D|10----------10--10--10------10--10--10------10--10------10--9---|
A|----------------------------------------------------------------|
E|----------------------------------------------------------------|

2:10

G|----------------------------------------------------------------|
D|8-----------8---8-----------8-----------------------------------|
A|--------------------------------8-----------8---8---------------|
E|----------------------------------------------------------------|

G|----------------------------------------------------------------|
D|----------------------------------------------------------------|
A|7-----------7---7---------------7-----------7---7-------7---9---|
E|----------------------------------------------------------------|

G|----------------------------------------------------------------|
D|7-----------7---7-----------7-----------------------------------|
A|--------------------------------9---------------9---------------|
E|----------------------------------------------------------------|

G|----------------------------------------------------------------|
D|----------------------------------------------------------------|
A|4-----------4---5-----4-----2---4-----------4---4-------4---/---|
E|----------------------------------------------------------------|

2:34

G|----------------------------------------------------------------|
D|----------------------------------------------------------------|
A|9---------------9---9-------9---9---9-------9---7-------9---8---|
E|----------------------------------------------------------------|

G|----------------------------------------------------------------|
D|----------------------------------------------------------------|
A|7-------7-----------------------------------------------7---9---|
E|----------------------------------------------------------------|

2:46

G|----------------------------------------------------------------|
D|7-----7-7-----------------------7-----7-7-----------------------|
A|------------7-----------7---9---------------7-------------------|
E|----------------------------------------------------------------|

G|----------------------------------------------------------------|
D|10--------------10--10------10--10--10------10--10------10------|
A|----------------------------------------------------------------|
E|----------------------------------------------------------------|

G|----------------------------------------------------------------|
D|7-----7-7-----------------------7-----7-7-----------------------|
A|------------7-------7---7---9---------------7-------7---7---9---|
E|----------------------------------------------------------------|

G|--------------------------------------------------------------------|
D|7-------7-----------------------7-------7-----------------------7---|
A|------------7-------7---7---9---------------7-------7---7---9-------|
E|--------------------------------------------------------------------|
Suggest correction
Give kudos to tab author, rate the tab!
1 2 3 4 5
comments
print report bad tab
guest
You may want to rate the tab now too:
select rating
Wanna post a correction for this tab? Suggest correction