Oops, an error
Loading. Please wait.

Blue Veins bass

8,668 views 9 this week
1 commentread comment
1 2 3 4 5
x 6
add to favorites
×
Save as Personal and add changes to this tab that will be seen only by you. Learn more ›
×
You can save this tab as Personal to edit and correct it or add notes. All changes will be seen only by you. Learn more »
launch autoscroll
font size
0
reset
guitar tuner
edit
Autoscroll
slow
fast
+/-
esc
set tempo
stop
Author
Difficulty
The bass on this song gets quiet and Jack makes a lot of little changes that shape the 
so pay attention. GOOD LUCK

INTRO:32seconds

G----------------------------------------------------------------------------|
D----------------------------------------------------------------------------|
A---------------------------5h75h7-5-----------------------------------------|
E-3/5-5-3/5--5-3/5-5-345------------85-5-3/5-5-345-5-5-5-35------------------|

VERSE:55seconds

G----------------------------------------------------------------------------|
D----------------------------------------------------------------------------|
A-3/5-5-3/5-5h75h7-5-----------------345-5-3/5-5h75h7-5---5-3/5--------------|
E-------------------85-5-5-3/5-5----5------------------85--------------------|

CHORUS:1minute17seconds

G----------------------------------------------------------------------------|
D----------------------------------------------------------------------------|
A---2-333-333-333-553-222-222-5h75h7-5---------------------------------------|
E-55----------------------------------85-3/5-5-3/5-5-5345-5-3/5--------------|

VERSE:1minute40seconds

G----------------------------------------------------------------------------|
D----------------------------------------------------------------------------|
A-3/5-5-3/5-5-5h75h7-5------------------5-5-3/5-5-3/5-5-5h75h7---------------|
E---------------------85-5-3/5-5-3/5-345----------------------85-5-3/5-345---|

G----------------------------------------------------------------------------|
D----------------------------------------------------------------------------|
A-5-5-3/5-5-3/5-5-5h75h7-5--3/5-5-3/5-5-3/5-5--------------------------------|
E-------------------------85-------------------------------------------------|

CHORUS:2min3seconds

G----------------------------------------------------------------------------|
D----------------------------------------------------------------------------|
A---2-333-333-333-553-222-222-5h75h7-5---------------------------------------|
E-55----------------------------------85-5-3/5-5-3/5-3/5-5-345---------------|


The End
Suggest correction
Creating personal tab
Creating personal tab
You can edit any tab online and save it as your Personal.

You can edit, replace or remove any tab part or add personal notes – all changes will be seen only by you.

Personal tabs can be accessed anytime from any device, even offline.
Learn more »
comments
print report bad tab
1 comment total.
0 reply
Challenger440 307 Mar 16, 2013 08:14 AM

I play it a tad differently than this, but this gives a really good feel for the song. Thanks!

guest
You may want to rate the tab now too:
select rating
Wanna post a correction for this tab? Suggest correction