Oops, an error
Loading. Please wait.

Hands bass

version 2
version 2

Whole song

  • All sections of the song are written out in chrono... Show more

Interactive

88 views 1 this week
no commentswrite comment
1 2 3 4 5
3 more votes to show rating
add to favorites
×
Save as Personal and add changes to this tab that will be seen only by you. Learn more ›
×
You can save this tab as Personal to edit and correct it or add notes. All changes will be seen only by you. Learn more »
launch autoscroll
font size
0
reset
guitar tuner
edit
Autoscroll
slow
fast
+/-
esc
set tempo
stop
Author
Difficulty
About this tab version
All sections of the song are written out in chronological order with time stamps from the song for reference. Was this info helpful? Yes No
Hands
The Raconteurs 
Broken Boy Soldier

Tabbed by Brandon Watt

Comments and corrections always welcome



Intro 0:13
G|---------------------------------------------------------------------------------------|
D|-----------------------9-11-12-~~~-----------------------------------------------------|
A|---12-~~~~---10h12--12-------------12~~~-9-~~~------------------------5---7---9---10---|
E|----------------------------------------------10-~~~~-5-~~~`---5-7-9-------------------|x2


Verse 0:33
G|---------------------------------------------------------------------------------------|
D|-----------------------9-11-12-~~~-----------------------------------------------------|
A|---12-~~~~---10h12--12-------------12~~~-9-~~~------------------------5---7---9---10---|
E|----------------------------------------------10-~~~~-5-~~~`---5-7-9-------------------|x2


Chorus 0:53
G|---------------------------------------------------------------------|
D|---------------------------------------------------------------------|
A|-----------------------------------5-5-5-5-5-5-5-5-5-5-5-5-5-5-5-5-5-|
E|---1-1-1-1-1-1-1-1-3-3-3-3-3-3-3-3-----------------------------------|

                                              
G|---------------------------------------------------------------------|
D|---------------------------------------------------------------------|
A|-----------------------------------5-~~~~~~~~~~~~~~------------------|
E|---1-1-1-1-1-1-1-1-3-3-3-3-3-3-3-3-----------------------------------|


Post Chorus 1:13
G|---------------------------------------------------------------------------------------|
D|-----------------------9-11-12-~~~-----------------------------------------------------|
A|---12-~~~~---10h12--12-------------12~~~-9-~~~------------------------5---7---9---10---|
E|----------------------------------------------10-~~~~-5-~~~`---5-7-9-------------------|x2


Verse 1:33
G|---------------------------------------------------------------------------------------|
D|-----------------------9-11-12-~~~-----------------------------------------------------|
A|---12-~~~~---10h12--12-------------12~~~-9-~~~------------------------5---7---9---10---|
E|----------------------------------------------10-~~~~-5-~~~`---5-7-9-------------------|x2


Chorus 1:53
G|---------------------------------------------------------------------|
D|---------------------------------------------------------------------|
A|-----------------------------------5-5-5-5-5-5-5-5-5-5-5-5-5-5-5-5-5-|
E|---1-1-1-1-1-1-1-1-3-3-3-3-3-3-3-3-----------------------------------|

                                              rest
G|---------------------------------------------------------------------|
D|---------------------------------------------------------------------|
A|-----------------------------------5---------------------------------|
E|---1-1-1-1-1-1-1-1-3-3-3-3-3-3-3-3-----------------------------------|


Bridge 2:25
G|-----------------------------------------------------------------------------------------------------|
D|---14--14--14--------------12--12--12-------------10--10--10-----------------------------------------|
A|---------------------------------------------------------------------------10--10--10----------------|
E|-----------------------------------------------------------------------------------------------------|x2



G|-----------------------------------------------------------------------------------------------------|
D|---14-14-14-14-14-14-14-14-12-12-12-12-12-12-12-12-10-10-10-10-10-10-10-10---------------------------|
A|---------------------------------------------------------------------------10-10-10-10-10-10-10-10---|
E|-----------------------------------------------------------------------------------------------------|


Outro 2:54
G|--------------------------------------------------------------------|
D|--------------------------------------------------------------------|
A|--7-7-7-7-7-7-7-7-5-5-5-5-5-5-5-5-3-3-3-3-3-3-3-3-------------------|
E|--------------------------------------------------3-3-3-3-3-3-3-3---|


G|---------------------------------------------------------------------|
D|---------------------------------------------------------------------|
A|--7-7-7-7-7-7-7-7-5-5-5-5-5-5-5-5-3-3-3-3-3-3-3-3-----------10-9-8---|
E|--------------------------------------------------3-3-3-3-3----------|x5

End on 3:49
G|-------------------------|
D|-------------------------|
A|--7-~~~~~~~~~~~~~~~~~----|
E|-------------------------|





Suggest correction
Creating personal tab
Creating personal tab
You can edit any tab online and save it as your Personal.

You can edit, replace or remove any tab part or add personal notes – all changes will be seen only by you.

Personal tabs can be accessed anytime from any device, even offline.
Learn more »
Give kudos to tab author, rate the tab!
1 2 3 4 5
comments
print report bad tab
guest
You may want to rate the tab now too:
select rating
Wanna post a correction for this tab? Suggest correction