Oops, an error
Loading. Please wait.

It Aint Easy tab

version 1
version 1

Whole song

2,307 views 1 this week
no commentswrite comment
1 2 3 4 5
3 more votes to show rating
add to favorites
×
Save as Personal and add changes to this tab that will be seen only by you. Learn more ›
×
You can save this tab as Personal to edit and correct it or add notes. All changes will be seen only by you. Learn more »
launch autoscroll
font size
0
reset
how to read this tab
guitar tuner
edit
Autoscroll
slow
fast
+/-
esc
set tempo
stop
Author
Difficulty
----------------------------------
| It Ain't Easy                    |
| Live at the London Astoria, UK   |
| 23rd March 2006                  |
| Performed by The Raconteurs      |
----------------------------------

 ----------------------
| CHORDS:   EADGBE     |
|           ------     |
| D/A:      X0X232     |
| A:        X02220     |
| C:        X32010     |
| Cm:       X35543     |
| D:        XX0232     |
|                      |
| P:        Pull Off   |
| B:        Bend       |
 ----------------------


INTRO:
D/A  A  D/A  A  D/A  A  D/A  A

VERSE 1:
         D/A                         A
When you climb to the top of the mountain
D/A               A
Look out over the sea
D/A             A                      D/A             A
Think about the places perhaps where a young man could be
         D/A                   A
Then you jump back down to the rooftops
D/A               A
Look out over the town
D/A                    C       A      D/A                A
Think about all of the strange things circulating round


CHORUS 1:

C        A        C        A
It ain't easy,    it ain't easy


OVER CHORUS:

   C     A         C       A
e|-------15B15-12----------15B15-12-------|
b|---------------13----------------13-----|
G|----------------------------------------|
D|----------------------------------------|
A|----------------------------------------|
E|----------------------------------------|

  C        Cm             D                        A
  It ain't easy to get to heaven when you're going down


OVER CHORUS:

   C       Cm             D           A
e|---------15B-15B15P12---14-14P12---------|
b|---------------------------------13B14---|
G|-----------------------------------------|
D|-----------------------------------------|
A|-----------------------------------------|
E|-----------------------------------------|


VERSE 2:
             D/A                   A
Well all the people have got their problems
D/A                A
That ain't nothing new
D/A                  A         D/A                A
With the help of the good Lord we can all pull on through
       D/A           A
We can all pull on through
D/A              A
Get there in the end
D/A                      A            D/A                   A
Sometimes it'll take you right up and sometimes down again


CHORUS 2:


VERSE 3:
     D/A           A
Satisfaction, satisfaction
D/A            A
Keep me satisfied
D/A                    A                         D/A            A
I've got the love of a Hoochie Coochie woman she calling from inside
        D/A             A
She's a-calling from inside
D/A              A
Trying to get to you
D/A           A                    D/A                     A
All the woman really wants you can give her something too


CHORUS 3+4:


OUTRO:

    D/A   A          D/A   A          C  D  A
 e|-----------------------------------------------------------|
 b|-8B8---5-58-------8B8---5-58-------55----------------------|
 G|--------7----------------7------------7---------------7P6--|
 D|------------------------------------------------2--4/7---7-|
 A|-----------------------------------------0--3/4------------|
 E|-----------------------------------------------------------|

    D/A   A          D/A   A          C  D  A
 e|-----------------------------------------12B12-10--12-5----|
 b|-12B12-10--10-12--12B12-10--10-12--12-11---------12B---5---|
 G|---------12---------------12----------------------------76-|
 D|-----------------------------------------------------------|
 A|-----------------------------------------------------------|
 E|-----------------------------------------------------------|
Suggest correction
Creating personal tab
Creating personal tab
You can edit any tab online and save it as your Personal.

You can edit, replace or remove any tab part or add personal notes – all changes will be seen only by you.

Personal tabs can be accessed anytime from any device, even offline.
Learn more »
Give kudos to tab author, rate the tab!
1 2 3 4 5
comments
print report bad tab
guest
You may want to rate the tab now too:
select rating
Wanna post a correction for this tab? Suggest correction