Oops, an error
Loading. Please wait.
We have an official Level tab made by UG professional guitarists. Check out the tab »
×
2,371 views 1 this week
no commentswrite comment
1 2 3 4 5
1 last vote to show rating
add to favorites
×
Save as Personal and add changes to this tab that will be seen only by you. Learn more ›
×
You can save this tab as Personal to edit and correct it or add notes. All changes will be seen only by you. Learn more »
launch autoscroll
font size
0
reset
guitar tuner
edit
Autoscroll
slow
fast
+/-
esc
set tempo
stop
Difficulty
TABBED BY BIG M MAN DUDE GUY (YEA)
"THIS SONG IS REAL EASY"-THE MAN(ME)

VERSE                                                                 x10
G|---------------------------------------------------------------------------|
D|---------------------------------------------------------------------------|
A|---------------------------------------------------------------------------|
E|-2-2-4----1-2-------------------------------------------------------------

CHORUS                                                                x4
G|---------------------------------------------------------------------------|
D|---------------------------------------------------------------------------|
A|---------------------------------------------------------------------------|
E|-1-4-4-3-2----------------------------------------------------------------

VERSE                                                                 x8
G|---------------------------------------------------------------------------|
D|---------------------------------------------------------------------------|
A|---------------------------------------------------------------------------|
E|-2-2-4----1-2-------------------------------------------------------------

CHORUS                                                                x4
G|---------------------------------------------------------------------------|
D|---------------------------------------------------------------------------|
A|---------------------------------------------------------------------------|
E|-4-4-3-2--1---------------------------------------------------------------

VERSE                                                                 x8
G|---------------------------------------------------------------------------|
D|---------------------------------------------------------------------------|
A|---------------------------------------------------------------------------|
E|-2-2-4----1-2-------------------------------------------------------------

CHORUS                                                                x3
G|---------------------------------------------------------------------------|
D|---------------------------------------------------------------------------|
A|---------------------------------------------------------------------------|
E|-4-4-3-2--1---------------------------------------------------------------
END
G|---------------------------------------------------------------------------|
D|---------------------------------------------------------------------------|
A|---------------------------------------------------------------------------|
E|-4-4-3-2--1-4-------------------------------------------------------------


THIS SONG IS EASIER IF U DONT LISTEN TO THE ELECTRIC GUITAR WHILE UR PLAYIN

                       

            
            
Suggest correction
Creating personal tab
Creating personal tab
You can edit any tab online and save it as your Personal.

You can edit, replace or remove any tab part or add personal notes – all changes will be seen only by you.

Personal tabs can be accessed anytime from any device, even offline.
Learn more »
Give kudos to tab author, rate the tab!
1 2 3 4 5
comments
print report bad tab
guest
Wanna post a correction for this tab? Suggest correction