Oops, an error
Loading. Please wait.

Salute Your Salution bass

6,594 views 6 this week
3 commentsread comments
1 2 3 4 5
x 6
add to favorites
×
Save as Personal and add changes to this tab that will be seen only by you. Learn more ›
×
You can save this tab as Personal to edit and correct it or add notes. All changes will be seen only by you. Learn more »
launch autoscroll
font size
0
reset
guitar tuner
edit
Autoscroll
slow
fast
+/-
esc
set tempo
stop
Author
Difficulty
Tabbed By : Bernie93
e-mail: bernie-109@hotmail.com

Tuning: standard
        EADG


this song isn't too hard, but its a lot easier 
if you memorise each 'section' before 
trying to play it as a whole song.
one thing that makes it 
easier that - except for 
the bridge - the song follows 
the same rhythm, 
check the song for the timing 

-Salute Your Salution

00:07  
Intro/Chorus: (after 2 bars of guitar) x4
G|-------------------------------|
D|--2--2----0--------------------|   
A|-------------0--2-2-2----------|
E|-------------------------------|

on 4th time finish on the open E that starts the verse

00:19
Verse: (part 1)                        x6
G|------------------------------------|
D|------------------------------------|
A|------------------------------------|
E|--0--0----3--5--7--10--10-----------|

00:36
Verse: (part 2)                        x4
G|------------------------------------|
D|------------------9--12--12---------|
A|--7--7----10--12--------------------|
E|------------------------------------|

00:47
CHORUS          x4
VERSE (part 1)  x4
VERSE (part 2)  x4

01:22
Bridge                    x4          
G|-----------------------------|        the timing for this bit is
D|-----------------9\----------|        tricky, check the song.
A|---7-------------------------|
E|-----------------------------|

on the fourth time finish on the 7 (a string)

01:45
next riff thing:                                          x4
G|----------------------------------------|--------------------------------------|
D|----------------------------------------|--------------------------------------|
A|-------------------------------10h11----|---10-11------------------------------|
E|--0--3--5---5--7--10---10--12--------12-|---------12---10--12--7---5--7--3--0--|

02:09
CHORUS x10

02:37
Outro: (variation of the chorus)   x4       
G|----------0--2--4--7--7------------------|
D|--2--2-----------------------------------|
A|-----------------------------------------|
E|-----------------------------------------|

02:48
finish on
-----|
--2--|
-----|
-----|
Suggest correction
Creating personal tab
Creating personal tab
You can edit any tab online and save it as your Personal.

You can edit, replace or remove any tab part or add personal notes – all changes will be seen only by you.

Personal tabs can be accessed anytime from any device, even offline.
Learn more »
comments
print report bad tab
3 comments total.
0 reply
bernie93 319 Jul 30, 2008 12:32 AM

my apologies on spelling 'solution' wrong, lol
how embarrasing.

0 reply
seamen08 31 Aug 31, 2008 07:18 AM

i play it like this, both sound good tho

G--------------------
D--------------------
A--7-7---5-----------
E-------------5---7-7

0 reply
hightide69 10 Jan 23, 2010 06:31 PM

hey this is excellent thanks!

guest
You may want to rate the tab now too:
select rating
Wanna post a correction for this tab? Suggest correction