Oops, an error
Loading. Please wait.

Salute Your Solution bass

version 1
version 1

Whole song

Interactive

27,472 views 21 this week
5 commentsread comments
1 2 3 4 5
x 17
add to favorites
×
Save as Personal and add changes to this tab that will be seen only by you. Learn more ›
×
You can save this tab as Personal to edit and correct it or add notes. All changes will be seen only by you. Learn more »
launch autoscroll
font size
0
reset
guitar tuner
backing track
0:00
0:00
edit
Autoscroll
slow
fast
+/-
esc
set tempo
stop
Difficulty
begin


intro (verse 0):
G-------------------|
D-------------------|
A-7-7--5------------|
E--------(3)--5-7-7-|  (the D# (3) could be muted, if you want, i think it sounds good unmuted

Bass solo and keep playing this while jack sings(verse 1):
-----------------|
-----------------|
---------(2)-5-5-|   This B (2) could be played as a mute
0-0--3-5---------|

Then an octave higher when guitar comes in(verse 2):
---------------------|
-----------(9)-12-12-| Again, this B (9) could be muted
7-7--10-12-----------|
---------------------|


then verse 0

then verse 1

then verse 2


then this when guitar kinda solos:

------------------------------------------------|
---------------9/----------------------------9/-|  (/means slide down)
7~~~~~~~~~~~~~~~~~~~~~~~~~~~~7~~~~~~~~~~~~~~~~~~  (~means Hold)
------------------------------------------------


then break when guitar starts


Then This (it might only be guitarro, im not sure):
--------------------------10-(12----|
----------------10--10-12-------12--|
------10--10-12---------------------|
10-12-------------------------------|

10-12------------------------------|
------12--10-12--------------------|
----------------12--10-12----------|
--------------------------13--10---|

then verse 0

then verse 2


then end on:

------------------|
------------------|
7~~~~~~~~~~~~~~~~~  I think it's the high E but you could play both
(0~~~~~~~~~~~~~~~)

i dont know if this is guitar or bass but the last thing is:

-------------|
-------------|
12-10----10^-|  (^ means bend the string a little, if you want)
------12-----|


Thats it, thank you(s) Jack, Brendan,Bass Jack and Patrick  for making this song, i hope
helped and was correct.I probably made up a bunch of the stuff that maybe only guitar
but this was my first tab so enjoy!

Love,
Me
4 fingers, 4 strings (thumbs arent used in this song if yu prefer or use your thumb and 
a 5 string)

            
            
Suggest correction
Creating personal tab
Creating personal tab
You can edit any tab online and save it as your Personal.

You can edit, replace or remove any tab part or add personal notes – all changes will be seen only by you.

Personal tabs can be accessed anytime from any device, even offline.
Learn more »
comments
print report bad tab
5 comments total. Showing first comments.
+1 reply
13Kelly13 124 Dec 22, 2008 02:20 PM

Great tab, fits the song perfectly. A little easy but a helluvalot of fun to play

+1 reply
ZackyJW83 97 Jan 09, 2009 11:55 AM

The and I got what I got all despite you... bit is wrong
But other than that good tab.

+8 reply
peter von chaps 31 Apr 09, 2009 06:17 PM

"and i got what i got all despite you..."

G|-------------------------12h13----12h13------------------------------------|
D|----------------12-12-14-------14-------14-12h14---------------------------|
A|-------12-12-14----------------------------------14-12-14------------------|
E|-12-15----------------------------------------------------15-12------------|

guest
Wanna post a correction for this tab? Suggest correction