Oops, an error
Loading. Please wait.
We have an official Steady As She Goes tab made by UG professional guitarists. Check out the tab »
×
7,825 views 1 this week
6 commentsread comments
1 2 3 4 5
x 5
add to favorites
×
Save as Personal and add changes to this tab that will be seen only by you. Learn more ›
×
You can save this tab as Personal to edit and correct it or add notes. All changes will be seen only by you. Learn more »
launch autoscroll
font size
0
reset
how to read this tab
guitar tuner
backing track
0:00
0:00
edit
Autoscroll
slow
fast
+/-
esc
set tempo
stop
This is played with standard tuning, mess around with the amounts needed to play each 
until its right. The intro is correct, the main riff, verse, and chorus may need editing.

Intro

e|---------------------------------------|----------------------------------------|
B|-3~~~~~~~~~~~-------3~~~~~~~~~~~-------|-2~~~~~~~~~~~---------------------------|
G|---------------------------------------|-------------------4~~~~~~~~~~~---------|
D|---------------------------------------|----------------------------------------|
A|---------------------------------------|----------------------------------------|
E|---------------------------------------|----------------------------------------|

e|---------------------------------------|----------------------------------------|
B|-3~~~~~~~~~~~-------3~~~~~~~~~~~-------|-2~~~~~~~~~~~---------------------------|
G|---------------------------------------|-------------------4~~~~~~~~~~~---------|
D|---------------------------------------|----------------------------------------|
A|---------------------------------------|----------------------------------------|
E|---------------------------------------|----------------------------------------|


Main Riff

e|-------------------|-------------------|-------------------|-----0--------------|
B|-------------------|-------------------|-------------------|-----2-------0------|
G|-----4-------------|-----2-------------|-----4-------------|-----2-------1------|
D|-----4-------4-----|-----2-------2-----|-----4------4------|-----2-------2------|
A|-----2-------2-----|-----0-------2-----|-----2------4------|-----0-------2------|
E|-----2-------2-----|-------------0-----|-----2------2------|-------------0------|


Verse

e|--------------------------|--------------------------|-----------------0--------|
B|--------------------------|-------2------------------|-------2---------0--------|
G|--------4-----------------|-------2------------------|-------2---------1--------|
D|--------4----------4------|-------2---------2--------|-------2---------2--------|
A|--------2----------4------|-------0---------2--------|-------0------------------|
E|-------------------2------|-----------------0--------|--------------------------|


Chorus

e|-------------------|-------------------|-------------------|--------------------|
B|--------4----------|---2---2---0---0---|--4---4------------|--2---2---0---0-----|
G|----4---4----------|---2---2---1---1---|--4---4----------2-|--2---2---1---1-----|
D|----4---4---4---4--|---2---2---2---2---|--4---4---4---4--2-|--2---2---2---2--2--|
A|----2---2---4---4--|---0---0---2---2---|--2---2---4---4--0-|--0---0---2---2--2--|
E|------------2---2--|-----------0---0---|----------2---2----|----------0---0--0--|


Bridge

e|--------------------------|--------------------------|--------------------------|
B|--------------------------|--------------------------|--------------------------|
G|---4----4----4----4---4---|---6----6----6----6---6---|---8-----8-----8-----8----|
D|---5----5----5----5---5---|---7----7----7----7---7---|---9-----9-----9-----9----|
A|---5----5----5----5---5---|---7----7----7----7---7---|---9-----9-----9-----9----|
E|---3----3----3----3---3---|---5----5----5----5---5---|---7-----7-----7-----7----|

e|--------------------------|--------------------------|--------------------------|
B|--------------------------|--------------------------|--------------------------|
G|--8----8----8---0-------0-|---1----1--1--1--1--1-----|--1--1--1--1--1--1--1--1--|
D|--9----9----9---0---7---0-|---2----2--2--2--2--2--0--|--2--2--2--2--2--2--2--2--|
A|--9----9----9---0---7---0-|---2----2--2--2--2--2--0--|--2--2--2--2--2--2--2--2--|
E|--7----7----7-------5-----|---0----0--0--0--0--0--0--|--0--0--0--0--0--0--0--0--|


Interlude

e|--------------------------|--------------------------|--------------------------|
B|-------4---------------X--|----X--X--2---------------|--------------------------|
G|-------4---X-----------X--|----X--X--2---------------|---X-X-X-4----------------|
D|-------4---X-----4-----X--|----X--X--2---------2--2--|---X-X-X-4------X-4-4-4---|
A|-------2---X-----4--------|----------0---------2--2--|---X-X-X-2------X-4-4-4---|
E|-------------X---2--------|--------------------0--0--|----------------X-2-2-2---|

e|------------------------------|------------------------|------------------------|
B|------------------------------|---------------------X--|-X--------------5----X--|
G|----0--0--2--2----------------|-----4---X-----------X--|-X-----2---X----4----X--|
D|----0--0--2--2----------------|-----4---X----4------X--|-X-----2---X----2----X--|
A|----0--0--0--0--------2---2---|-----2--------4---------|-------0----------------|
E|----------------------0---0---|--------------2---------|------------------------|


Outro

e|---------------------------------|---------7-----9-----/10-----9-----7----------|
B|---------------------------------|---7-------------------------------------7----|
G|---------------------------------|----------------------------------------------|
D|---------------------------------|----------------------------------------------|
A|---------------------------------|----------------------------------------------|
E|---------------------------------|----------------------------------------------|

            
            
Suggest correction
Creating personal tab
Creating personal tab
You can edit any tab online and save it as your Personal.

You can edit, replace or remove any tab part or add personal notes – all changes will be seen only by you.

Personal tabs can be accessed anytime from any device, even offline.
Learn more »
comments
print report bad tab
6 comments total. Showing first comments.
0 reply
awsomeguitarguy 152 May 21, 2007 11:30 AM

YEAH! I got another tab Aceepted! WOOOOOOOOOOOOOOOO!

#4 baby yeah!

PLEASE RATE HIGH!

0 reply
Guitarness12345 10 May 21, 2007 11:40 AM

I was just flipping through other tabs and remebered to check guitarguy's page and found out he did this song. I dont really know it but i tried it out (since i have my guitar with me) and its FINE!!!! I have looked at guitarguy's stuff since he did "only hope" by switchfoot and "The one thing i have left" by Hawk nelson (you should check out those tabs, he also did AFI's "girls not grey" pretty resently and thats really good too) and he has done some pretty nice tabs, might i say.

YEP, KEEP IT UP ONCE AGAIN GUITARGUY!!!!


FIVE STARS!!!!!!!!!!!

0 reply
awsomeguitarguy 152 May 21, 2007 11:57 AM

THANKS!!!

How bout you make a tab?
I think you just have a membership to look at tabs and rate them, but thats not a bad thing.

THANKS AGAIN!!!!

guest
You may want to rate the tab now too:
select rating
Wanna post a correction for this tab? Suggest correction