Oops, an error
Loading. Please wait.

Steady As She Goes Bass Tab

version 6
version 6
1,815 views 6 this week
no commentswrite comment
1 2 3 4 5
excellent!
x 4
add to favorites
launch autoscroll
font size
0
reset
guitar tuner
Tab Pro tools
  • play this tab
  • loop segment
  • change instrument
  • show fretboard
  • metronome
×
Best way to learn
"Steady As She Goes"
Autoscroll
slow
fast
+/-
esc
set tempo
stop
Contributor
Difficulty
-----------------------------------------------------------------------------
                    Steady As She Goes - The Raconteurs
-----------------------------------------------------------------------------

Tabbed By: JackelineLiss18

Tuning: Standard


1st verse:

 First RIFF

G|--------------------------------------------------------------------------|
D|--------------------------------------------------------------------------| x3
A|--2----1-------2----0-----------------------------------------------------|
E|----------2--------------4----0--2----------------------------------------|


 Second RIFF

G|--------------------------------------------------------------------------|
D|--------------------------------------------------------------------------|
A|--2----1-------2----0----0------------------------------------------------|
E|----------2-------------------0--2--4--5----------------------------------|



 First RIFF

G|-----------------------------------------------------------------------------|
D|-----------------------------------------------------------------------------| x2
A|--2----1-------2----0--------------------------------------------------------|
E|----------2--------------4-----0--2------------------------------------------|



 Third RIFF

G|--------------------------------------------------------------------------|
D|---------------------------4--2-------------------------------------------|
A|2----1-------2----0----0---------5--4-------------------------------------|
E|--------2-----------------------------------------------------------------|



Second RIFF

G|--------------------------------------------------------------------------|
D|--------------------------------------------------------------------------|
A|--2----1-------2----0----0------------------------------------------------|
E|----------2-------------------0--2--4--5----------------------------------|


Third RIFF

G|--------------------------------------------------------------------------|
D|---------------------------4--2-------------------------------------------|
A|2----1-------2----0----0---------5--4-------------------------------------|
E|--------2-----------------------------------------------------------------|






 First CHORUS

G|--------------------------------------------------------------------------|
D|--------------------------------------------------------------------------| x2
A|--2--2/5------------------------------------------------------------------|
E|----------2--2--5----5--0--2--4--5----------------------------------------|


2nd verse:


Second RIFF

G|--------------------------------------------------------------------------|
D|--------------------------------------------------------------------------|
A|--2----1-------2----0----0------------------------------------------------|
E|----------2-------------------0--2--4--5----------------------------------|


Third RIFF

G|--------------------------------------------------------------------------|
D|---------------------------4--2-------------------------------------------|
A|2----1-------2----0----0---------5--4-------------------------------------| x5
E|--------2-----------------------------------------------------------------|


First CHORUS

G|--------------------------------------------------------------------------|
D|--------------------------------------------------------------------------|
A|--2--2/5------------------------------------------------------------------|
E|----------2--2--5----5--0--2--4--5----------------------------------------|


 Second CHORUS

G|-----------------------------------------------------------------------|
D|-----------------------------------------------------------------------|
A|-----------------------------------------------------------------------|
E|3---3---3--0-3-4-5---5---5-0-5-0--7--7--7--7--5--7--7--7--6--5--4--3---| 


 -> (...continued)
G|--------------------------------------------------------------------------|
D|--------------------------------------------------------------------------|
A|----------------------------------------/7--------------------------------| x2
E|3---3---3-0-3-0--5---5---5-0-5-3-0-----------0----------------------------|


3rd verse

Second RIFF

G|--------------------------------------------------------------------------|
D|--------------------------------------------------------------------------|
A|--2----1-------2----0----0------------------------------------------------|
E|----------2-------------------0--2--4--5----------------------------------|


Third RIFF

G|--------------------------------------------------------------------------|
D|---------------------------4--2-------------------------------------------| x2
A|2----1-------2----0----0---------5--4-------------------------------------|
E|--------2-----------------------------------------------------------------|

Second RIFF

G|--------------------------------------------------------------------------|
D|--------------------------------------------------------------------------| x2
A|--2----1-------2----0----0------------------------------------------------|
E|----------2-------------------0--2--4--5----------------------------------|

First CHORUS

G|--------------------------------------------------------------------------|
D|--------------------------------------------------------------------------| x2
A|--2--2/5------------------------------------------------------------------|
E|----------2--2--5----5--0--2--4--5----------------------------------------|


 Second CHORUS

G|-----------------------------------------------------------------------|
D|-----------------------------------------------------------------------|
A|-----------------------------------------------------------------------|
E|3---3---3--0-3-4-5---5---5-0-5-0--7--7--7--7--5--7--7--7--6--5--4--3---| 

G|--------------------------------------------------------------------------|
D|--------------------------------------------------------------------------|
A|----------------------------------------/7--------------------------------|
E|3---3---3-0-3-0--5---5---5-0-5-3-0-----------0----------------------------|


4th verse


First riff

G|--------------------------------------------------------------------------|
D|--------------------------------------------------------------------------| x3
A|--2----1-------2----0-----------------------------------------------------|
E|----------2--------------4----0--2----------------------------------------|





 Third RIFF

G|--------------------------------------------------------------------------|
D|---------------------------4--2-------------------------------------------|
A|2----1-------2----0----0---------5--4-------------------------------------|
E|--------2-----------------------------------------------------------------|

Second RIFF

G|--------------------------------------------------------------------------|
D|--------------------------------------------------------------------------| x2
A|--2----1-------2----0----0------------------------------------------------|
E|----------2-------------------0--2--4--5----------------------------------|


First CHORUS

G|--------------------------------------------------------------------------|
D|--------------------------------------------------------------------------|
A|--2--2/5------------------------------------------------------------------|
E|----------2--2--5----5--0--2--4--5----------------------------------------|

First CHORUS

G|--------------------------------------------------------------------------|
D|--------------------------------------------------------------------------| x9
A|--2--2/5------------------------------------------------------------------|
E|----------2--2--5----5--0--2--4--5----------------------------------------|


 
This is my first riff :D i hope you like it. <3
comments
print report bad tab
I want to post or [tab]
guest
You may want to rate the tab now too:
select rating
Please do not post tabs as comments. Select "correction" instead!