Oops, an error
Loading. Please wait.

Where Damage Isnt Already Done bass

287 views 1 this week
no commentswrite comment
1 2 3 4 5
1 last vote to show rating
add to favorites
×
Save as Personal and add changes to this tab that will be seen only by you. Learn more ›
×
You can save this tab as Personal to edit and correct it or add notes. All changes will be seen only by you. Learn more »
launch autoscroll
font size
0
reset
guitar tuner
edit
Autoscroll
slow
fast
+/-
esc
set tempo
stop
Difficulty
Chorus 2x
G|-----------------|-----------------|-----------------|-----------------|
D|-----------------|-----------------|-6-6-6-6-6-6-6-6-|-6-6-6-6-6-6-6-6-|
A|-6-6-6-6-6-6-6-6-|-6-6-6-6-6-6-6-6-|-----------------|-----------------|
E|-----------------|-----------------|-----------------|-----------------|
  
G|-----------------|-----------------|-8-8-8-8-8-8-8-8-|-7-8-7-8-7-8-7-8-|
D|-3-3-3-3-3-3-3-3-|-3-3-3-3-3-3-3-3-|-----------------|-----------------|
A|-----------------|-----------------|-----------------|-----------------|
E|-----------------|-----------------|-----------------|-----------------|

Verse 1x
G|-----------------|-----------------|-----------------|-----------------|
D|-6~--------------|-----------------|-----------------|-----------------|
A|-----------------|-----------------|-----------------|-----------------|
E|-----------------|-----------------|-----------------|-----------------|
  
G|-----------------|-----------------|-----------------|-----------------|
D|-----------------|-----------------|-----------------|-----------------|
A|-----------------|-----------------|-----------------|-----------------|
E|-----------------|-----------------|-----------------|-----------------|

G|-----------------|-----------------|-----------------|-----------------|
D|-6-6-6-6-6-6-6-6-|-6-6-6-6-6-6-6-6-|-----------------|-----------------|
A|-----------------|-----------------|-6-6-6-6-6-6-6-6-|-6-6-6-6-6-6-6-6-|
E|-----------------|-----------------|-----------------|-----------------|

G|-----------------|-----------------|-8-8-8-8-8-8-8-8-|-7-8-7-8-7-8-7-8-|
D|-----------------|-----------------|-----------------|-----------------|
A|-8-8-8-8-8-8-8-8-|-8-8-8-8-8-8-8-8-|-----------------|-----------------|
E|-----------------|-----------------|-----------------|-----------------|

Chorus 2x
Verse 1x
Chorus 4x
Suggest correction
Creating personal tab
Creating personal tab
You can edit any tab online and save it as your Personal.

You can edit, replace or remove any tab part or add personal notes – all changes will be seen only by you.

Personal tabs can be accessed anytime from any device, even offline.
Learn more »
Give kudos to tab author, rate the tab!
1 2 3 4 5
comments
print report bad tab
guest
Wanna post a correction for this tab? Suggest correction