Oops, an error
Loading. Please wait.

Choti Si Hai Zindagi Tab

1,581 views 6 this week
no commentswrite comment
1 2 3 4 5
2 more votes to show rating
add to favorites
launch autoscroll
font size
0
reset
how to read this tab
guitar tuner
Autoscroll
slow
fast
+/-
esc
set tempo
stop
Help us to improve Ultimate-Guitar.com Take our survey!
×
Author
Difficulty
intermediate
E------1---0-----3---0---------------------------------|
B----3---------3---------------------------------------|
G------------------------------------------------------|
D--0---------0-----------------------------------------|
A------------------------------------------------------|
E------------------------------------------------------|

E------1---0-----3---0---------------------------------|
B----3---------3---------------------------------------|
G------------------------------------------------------|
D--0---------0-----------------------------------------|
A------------------------------------------------------|
E------------------------------------------------------|

Dm
heyy.. choti si hai jindagi x2
C F Dm
usse chota ek sapna
Dm

heyy.. choti si hai jindagi
C F Dm
usse chota ek sapna
F C A#
ek baar is dharti pe dekh loon khuda apna

Dm
hey bhagwan mujhko tuh
A# C Dm
jindagi dubara de..
Dm
hey bhagwan mujhko tuh
A# C Dm
jindagi dubara de..

Dm
raat ke andhere mein
Dm F
mujhe jo ujala de
Dm A#
jab thak jaaon toh apni
A# C
god ka sahara de

Dm
hey bhagwan mujhko tuh
A# C Dm
jindagi dubara de..
Dm
hey bhagwan mujhko tuh
A# C Dm
jindagi dubara de..

Dm
aaj bhi tu dekhta hoga x2
C G Dm
kahi dur satwan aasman
Dm F
aaj bhi tu dekhta hoga
C
kahi dur satwan aasman
Dm F
ho.. kaise khoya ja raha hai
A# C
apne aap mein insaan

hey bhagwan mujhko tuh
jindagi dubara de..
hey bhagwan mujhko tuh
jindagi dubara de..

Dm
hey dil ko sambhaloon kaise x2
C
tanhaayi mein doobi raat hai
Dm
hey dil ko sambhaloon kaise
C F
tanhaayi mein doobi raat hai
DM F
akele ho toh kya hua re x3
A# C
uska jo sahara hai
hey bhagwan mujhko tuh
jindagi dubara de..
hey bhagwan mujhko tuh
jindagi dubara de..
Suggest correction
Give kudos to tab author, rate the tab!
1 2 3 4 5
comments
print report bad tab
guest
You may want to rate the tab now too:
select rating
Wanna post a correction for this tab? Suggest correction