Oops, an error
Loading. Please wait.

Off Duty Trip tab

753 views 1 this week
1 commentread comment
1 2 3 4 5
2 more votes to show rating
add to favorites
×
Save as Personal and add changes to this tab that will be seen only by you. Learn more ›
×
You can save this tab as Personal to edit and correct it or add notes. All changes will be seen only by you. Learn more »
launch autoscroll
font size
0
reset
how to read this tab
guitar tuner
edit
Autoscroll
slow
fast
+/-
esc
set tempo
stop
Artist: The Raincoats
Song: "Off Duty Trip"
Album: The Raincoats (1979)



Standard Tuning



Guitars alternate between choppy, staccato riffing and ringing out 
partial chords.  Listen to the song to get the proper feel.



INTRO:
Guitar L
e|------------------------------------------------|
B|------------------------------------------------|
G|-------9--9--------------------9--9-------------|
D|------------------------------------------------|
A|-7-h8-----------7--8-----7-h8-----------7--8----|
E|------------------------------------------------|
+
e|------------------------------------------------|
B|------------------------------------------------|
G|-------7--7--------------------7--7-------------|
D|------------------------------------------------|
A|-5-h7-----------5--7-----5-h7-----------5--7----|
E|------------------------------------------------|
+
e|------------------------------------------------|
B|------------------------------------------------|
G|-------9--9--------------------9--9-------------|
D|------------------------------------------------|
A|-7-h8-----------7--8-----7-h8-----------7--8----|
E|------------------------------------------------|
+
e|------------------------------------------------|
B|------------------------------------------------|
G|-------7--7--------------------7--7-------------|
D|------------------------------------------------|
A|-5-h7-----------5--7-----5-h7-----------5--7----|
E|------------------------------------------------|


INTRO:
Guitar R (comes in with the drums on the second bar)
e|------------------------------------------------||
B|------------------------------------------------||
G|------------------------------------------------|| x 2
D|------------------------------------------------||
A|------------------------------------------------||
E|------------------------------------------------||
+
e|----------0----------------------(3)---(3)------|
B|-3-----x--3--------------3--------3-----3-------|
G|-4-----x--4--------------4--------4-----4-------|
D|-2-----x--2--------------2--------2-----2-------|
A|------------------------------------------------|
E|------------------------------------------------|
+
e|-0--------------------------------1-----1--0----|
B|-3-----x--3--------------3--------3-----3--3----|
G|-2-----x--2--------------2--------2-----2--2----|
D|-0-----x--0--------------0--------0-------------|
A|------------------------------------------------|
E|------------------------------------------------|



INTRO:
Bass
G|-------9--9--------------------9--9-------------|
D|------------------------------------------------|
A|-7-h8-----------7--8-----7-h8-----------7--8----|
E|------------------------------------------------|
+
G|-------7--7--------------------7--7-------------|
D|------------------------------------------------|
A|-5-h7-----------5--7-----5-h7-----------5--7----|
E|------------------------------------------------|
+
G|-------9--9--------------------9--9-------------|
D|------------------------------------------------|
A|-7-h8-----------7--8-----7-h8-----------7--8----|
E|------------------------------------------------|
+
G|-------7--7--------------------7--7-------------|
D|------------------------------------------------|
A|-5-h7-----------5--7-----5-h7-----------5--7----|
E|------------------------------------------------|



VERSE:
Guitar L
e|------------------------------------------------|
B|------------------------------------------------|
G|-------9--9--------------------9--9-------------|
D|------------------------------------------------|
A|-7-h8-----------7--8-----7-h8-----------7--8----|
E|------------------------------------------------|
+
e|------------------------------------------------|
B|------------------------------------------------|
G|-------7--7--------------------7--7-------------|
D|------------------------------------------------|
A|-5-h7-----------5--7-----5-h7-----------5--7----|
E|------------------------------------------------|
+
e|------------------------------------------------|
B|------------------------------------------------|
G|-------9--9--------------------9--9-------------|
D|------------------------------------------------|
A|-7-h8-----------7--8-----7-h8-----------7--8----|
E|------------------------------------------------|
+
e|------------------------------------------------|
B|------------------------------------------------|
G|-------7--7--------------------7--7-------------|
D|------------------------------------------------|
A|-5-h7-----------5--7-----5-h7-----------5--7----|
E|------------------------------------------------|
+
e|------------------------------------------------|
B|------------------------------------------------|
G|-------9--9--------------------9--9-------------|
D|------------------------------------------------|
A|-7-h8-----------7--8-----7-h8-----------7--8----|
E|------------------------------------------------|
+
e|------------------------------------------------|
B|------------------------------------------------|
G|-------7--7--------------------7--7-------------|
D|------------------------------------------------|
A|-5-h7-----------5--7-----5-h7-----------5--7----|
E|------------------------------------------------|
+
e|------------------------------------------------|
B|------------------------------------------------|
G|-------9--9--------------------9--9-------------|
D|------------------------------------------------|
A|-7-h8-----------7--8-----7-h8-----------7--8----|
E|------------------------------------------------|
+
e|------------------------------------------------|
B|------------------------------------------------|
G|-------7--7--------------------7--7-------------|
D|------------------------------------------------|
A|-5-h7-----------5--7-----5-h7-----------5--7----|
E|------------------------------------------------|
+
e|------------------------------------------------|
B|------------------------------------------------|
G|-------9--9--#-----------------9--9--#----------|
D|------------------------------------------------|
A|-7-h8--------------------7-h8-------------------|
E|------------------------------------------------|
+
e|------------------------------------------------|
B|------------------------------------------------|
G|-------7--7--#-----------------7--7--#----------|
D|------------------------------------------------|
A|-5-h7--------------------5-h7-------------------|
E|------------------------------------------------|



VERSE:
Guitar R (play choppy and staccato)
e|----------0-------------------------------(3)---|
B|-3-----x--3-----x--3--x--3-----x--3-----x--3\---|
G|-4-----x--4-----x--4--x--4-----x--4-----x--4\---|
D|-2-----x--2-----x--2--x--2-----x--2-----x--2\---|
A|------------------------------------------------|
E|------------------------------------------------|
+
e|(0)----------------------1--------0-------------|
B|-3-----x--3-----x--3--x--3-----x--3-----x--3----|
G|-2-----x--2-----x--2--x--2-----x--2-----x--2----|
D|-0-----x--0-----x--0--x--0-----x--0-----x--0----|
A|------------------------------------------------|
E|------------------------------------------------|
+
e|----------0-------------------------------(3)---|
B|-3-----x--3-----x--3--x--3-----x--3-----x--3\---|
G|-4-----x--4-----x--4--x--4-----x--4-----x--4\---|
D|-2-----x--2-----x--2--x--2-----x--2-----x--2\---|
A|------------------------------------------------|
E|------------------------------------------------|
+
e|(0)----------------------1--------0-------------|
B|-3-----x--3-----x--3--x--3-----x--3-----x--3----|
G|-2-----x--2-----x--2--x--2-----x--2-----x--2----|
D|-0-----x--0-----x--0--x--0-----x--0-----x--0----|
A|------------------------------------------------|
E|------------------------------------------------|
+
e|----------0-------------------------------(3)---|
B|-3-----x--3-----x--3--x--3-----x--3-----x--3\---|
G|-4-----x--4-----x--4--x--4-----x--4-----x--4\---|
D|-2-----x--2-----x--2--x--2-----x--2-----x--2\---|
A|------------------------------------------------|
E|------------------------------------------------|
+
e|(0)----------------------1--------0-------------|
B|-3-----x--3-----x--3--x--3-----x--3-----x--3----|
G|-2-----x--2-----x--2--x--2-----x--2-----x--2----|
D|-0-----x--0-----x--0--x--0-----x--0-----x--0----|
A|------------------------------------------------|
E|------------------------------------------------|
+
e|-------------------------3--------3--#----------|
B|-3--------3--#-----------3--------3--#----------|
G|-4--------4--#-----------4--------4--#----------|
D|-2--------2--#-----------2--------2--#----------|
A|------------------------------------------------|
E|------------------------------------------------|
+
e|-------------------------1--------0--#----------|
B|-3--------3--#-----------3--------3--#----------|
G|-2--------2--#-----------2--------2--#----------|
D|-0--------0--#-----------0--------0--#----------|
A|------------------------------------------------|
E|------------------------------------------------|
+
e|-------------------------3--------3--#----------|
B|-3--------3--#-----------3--------3--#----------|
G|-4--------4--#-----------4--------4--#----------|
D|-2--------2--#-----------2--------2--#----------|
A|------------------------------------------------|
E|------------------------------------------------|
+
e|-------------------------1--------0-------------|
B|-3--------3--#-----------3--------3-------------|
G|-2--------2--#-----------2--------2-------------|
D|-0--------0--#-----------0--------0-------------|
A|------------------------------------------------|
E|------------------------------------------------|



VERSE:
Bass
G|-------9--9--------------------9--9-------------|
D|------------------------------------------------|
A|-7-h8-----------7--8-----7-h8-----------7--8----|
E|------------------------------------------------|
+
G|-------7--7--------------------7--7-------------|
D|------------------------------------------------|
A|-5-h7-----------5--7-----5-h7-----------5--7----|
E|------------------------------------------------|
+
G|-------9--9--------------------9--9-------------|
D|------------------------------------------------|
A|-7-h8-----------7--8-----7-h8-----------7--8----|
E|------------------------------------------------|
+
G|-------7--7--------------------7--7-------------|
D|------------------------------------------------|
A|-5-h7-----------5--7-----5-h7-----------5--7----|
E|------------------------------------------------|
+
G|-------9--9--------------------9--9-------------|
D|------------------------------------------------|
A|-7-h8-----------7--8-----7-h8-----------7--8----|
E|------------------------------------------------|
+
G|-------7--7--------------------7--7-------------|
D|------------------------------------------------|
A|-5-h7-----------5--7-----5-h7-----------5--7----|
E|------------------------------------------------|
+
G|-------9--9--------------------9--9-------------|
D|------------------------------------------------|
A|-7-h8-----------7--8-----7-h8-----------7--8----|
E|------------------------------------------------|
+
G|-------7--7--------------------7--7-------------|
D|------------------------------------------------|
A|-5-h7-----------5--7-----5-h7-----------5--7----|
E|------------------------------------------------|
+
G|-------9--9--#-----------------9--9--#----------|
D|------------------------------------------------|
A|-7-h8--------------------7-h8-------------------|
E|------------------------------------------------|
+
G|-------7--7--#-----------------7--7--#----------|
D|------------------------------------------------|
A|-5-h7--------------------5-h7-------------------|
E|------------------------------------------------|



PRE-CHORUS:
Guitar L
e|------------------------------------------------||
B|-1--1--x--x--1--1--x--x--1-----x--1-----x--1----||
G|-2--2--x--x--2--2--x--x--2-----x--2-----x--2----|| x 3
D|-2--2--x--x--2--2--x--x--3-----x--3-----x--3----||
A|------------------------------------------------||
E|------------------------------------------------||
+
e|------------------------------------------------|
B|-1--1--x--x--1--1--x--x--1-----1----/3----------|
G|-2--2--x--x--2--2--x--x--2-----2----/4----------|
D|-2--2--x--x--2--2--x--x--3-----3----/5----------|
A|-------------------------3-----3----/5----------|
E|------------------------------------------------|



PRE-CHORUS:
Guitar R
e|------------------------------------------------|
B|----------------------------------------8--8----|
G|----------------------------------------10-10---|
D|----------------------------------------10-10---|
A|------------------------------------------------|
E|-------5--5--------0-----1--------3-------------|
+
e|------------------------------------------------|
B|------------------------------------------------|
G|------------------------------------------------|
D|------------------------------------------------|
A|------------------------------------------------|
E|-------5--5--------0-----1--------3--------3----|
+
e|------------------------------------------------|
B|----------------------------------------8--8----|
G|----------------------------------------10-10---|
D|----------------------------------------10-10---|
A|------------------------------------------------|
E|-------5--5--------0-----1--------3-------------|
+
e|------------------------------------------------|
B|------------------------------------------------|
G|------------------------------------------------|
D|------------------------------------------------|
A|------------------------------------------------|
E|-------------------0-----1-----1-----3----------|



PRE-CHORUS:
Bass
G|-14-14-------14-14-------14h15----------17-17---|
D|-------14-14-------14-14----------17------------|
A|------------------------------------------------|
E|------------------------------------------------|
+
G|-14-14-------14-14------------------------------|
D|-------14-14-------14-14-15-------------17-17---|
A|------------------------------------------------|
E|----------------------------------15------------|
+
G|-14-14-------14-14-------14h15----------17-17---|
D|-------14-14-------14-14----------17------------|
A|------------------------------------------------|
E|------------------------------------------------|
+
G|-14-14-------14-14------------------------------|
D|-------14-14-------14-14-15----15---/17---------|
A|------------------------------------------------|
E|------------------------------------------------|



CHORUS:
Guitar L
                               * pick double time
e|-0-----0----------------------------------------||
B|-0-----0-----5-----5-----7-----7--x--7--x--7--x-||
G|-1-----1-----5-----5-----7-----7--x--7--x--7--x-|| x 3
D|-2-----2-----5-----5-----7-----7--x--7--x--7--x-||
A|-2-----2-----3-----3-----5-----5--x--5--x--5--x-||
E|-0-----0----------------------------------------||
+
 * pick double time
e|-7--x--7--x--7--x--7----|
B|-7--x--7--x--7--x--7----|
G|-7--x--7--x--7--x--7----|
D|-7--x--7--x--7--x--7----|
A|------------------------|
E|------------------------|



CHORUS:
Guitar R
e|----------------------------7-----5-------------||
B|-------------5-----5-----7--7-----5-------------||
G|-1-----1-----5-----5-----7--7-----5-------------|| x 3
D|-2-----2-----5-----5-----7--7-----5-------------||
A|-2-----2-----3-----3-----5----------------------||
E|------------------------------------------------||
+
 * pick double time
e|-7--x--7--x--7--x--7----|
B|-7--x--7--x--7--x--7----|
G|-7--x--7--x--7--x--7----|
D|-7--x--7--x--7--x--7----|
A|------------------------|
E|------------------------|



CHORUS:
Bass
G|------------------------------------------------||
D|-------------------------1212--1212--1212--1212-|| x 3
A|-7-----7----------------------------------------||
E|-------------8--8--8/-------1010--1010--1010--10||
+
G|------------------------|
D|-1212--1212--1212--1212-|
A|------------------------|
E|10--1010--1010--1010----|



SONG STRUCTURE:

Guitar L
INTRO
VERSE
PRE-CHORUS
CHORUS
INTRO
VERSE
PRE-CHORUS
CHORUS
INTRO
VERSE
PRE-CHORUS
CHORUS

Guitar R
INTRO
VERSE
PRE-CHORUS
CHORUS
INTRO
VERSE
PRE-CHORUS
CHORUS
INTRO
VERSE
PRE-CHORUS
CHORUS

Bass
INTRO
VERSE
PRE-CHORUS
CHORUS
INTRO
VERSE
PRE-CHORUS
CHORUS
INTRO
VERSE
PRE-CHORUS
CHORUS



That's it.  Please feel free to rate, leave comments, questions, requests, etc.
Cheers!
-Bennyshambles78-



            
            
Suggest correction
Creating personal tab
Creating personal tab
You can edit any tab online and save it as your Personal.

You can edit, replace or remove any tab part or add personal notes – all changes will be seen only by you.

Personal tabs can be accessed anytime from any device, even offline.
Learn more »
Give kudos to tab author, rate the tab!
1 2 3 4 5
comments
print report bad tab
1 comment total.
0 reply
nightmaremoon 10 Aug 13, 2014 09:05 AM

wooo! please post Don't Be Mean. thank you

guest
You may want to rate the tab now too:
select rating
Wanna post a correction for this tab? Suggest correction