Oops, an error
Loading. Please wait.

22 Grand Job tab

version 2
version 2

Whole song

Interactive

3,362 views 1 this week
3 commentsread comments
1 2 3 4 5
x 5
add to favorites
×
Save as Personal and add changes to this tab that will be seen only by you. Learn more ›
×
You can save this tab as Personal to edit and correct it or add notes. All changes will be seen only by you. Learn more »
launch autoscroll
font size
0
reset
how to read this tab
guitar tuner
edit
Autoscroll
slow
fast
+/-
esc
set tempo
stop
Difficulty
intermediate
Not entirely happy with the tab already here for the main riff, so here's my go.

E|-------------------------------------|
B|-------------------------------------|
G|-------------------------------------|
D|------------9-11-9-------------------|
A|-7h9--9h11--------11-9-7-----7-9-7---|
E|------------------------9-7-9--------|

The verse is all just open E on bass.

The keychange is exactly the same pattern but a fret higher, so -


E|-------------------------------------------|
B|-------------------------------------------|
G|-------------------------------------------|
D|------------10-12-10-----------------------|
A|-8h10--10h12--------12-10-8-------8-10-8---|
E|---------------------------10-8-10---------|

The last time he plays it he slows it down at the end.

The little chord played at the end is just

E|---
B|-8-
G|-8-
D|---
A|---
E|---

Cheers

            
            
Suggest correction
Creating personal tab
Creating personal tab
You can edit any tab online and save it as your Personal.

You can edit, replace or remove any tab part or add personal notes – all changes will be seen only by you.

Personal tabs can be accessed anytime from any device, even offline.
Learn more »
comments
print report bad tab
3 comments total.
0 reply
stu_f 441 Dec 23, 2005 12:19 AM

in reality its no different to my sodding tab. its the same notes but playd in diff positions hmmm

then again i should know... i did play guitar with the rakes fr 9 songs at a gig

ha

0 reply
chrissya8 10 Dec 24, 2005 09:37 AM

well sed mate.
in the released version thats on tele theres a part which is played like this
E-----7--9 -9 -9 -9-------------
A--7--9--11-11-11-11------------
D--9--9--11-11-11-11------------ X5 ( i think, work it out)
G--9----------------------------
B-------------------------------
E-------------------------------

its played in the break before the chorus and the part where hese going " in the city that sounds nice.. did we do the same degree"

apologies as i cannot tab, adn well thats my first. but thought i better point it out

0 reply
stu_f 441 Dec 27, 2005 10:36 PM

cheers for that, im lazy so i just stuck to the original ad album version. i will put some more up soon, aim to get the whole album out even

guest
Wanna post a correction for this tab? Suggest correction