Oops, an error
Loading. Please wait.

Binary Love tab

1,745 views 6 this week
1 commentread comment
1 2 3 4 5
x 3
add to favorites
×
Save as Personal and add changes to this tab that will be seen only by you. Learn more ›
×
You can save this tab as Personal to edit and correct it or add notes. All changes will be seen only by you. Learn more »
launch autoscroll
font size
0
reset
how to read this tab
guitar tuner
edit
Autoscroll
slow
fast
+/-
esc
set tempo
stop
Author
e----------------------------------------------------------------|
b----------------------------------------------------------------|
g--7-7h10--7-7h10--7-7h10--7-7h10--------------------------------|
d----------------------------------7-7h10--7-7h10--7-7h10--7-7h10|
a----------------------------------------------------------------|
E----------------------------------------------------------------|

Chorus (with effect pedal)
Dm,G,F,G

bridge "the satellites"  F,Am


            
            
Suggest correction
Creating personal tab
Creating personal tab
You can edit any tab online and save it as your Personal.

You can edit, replace or remove any tab part or add personal notes – all changes will be seen only by you.

Personal tabs can be accessed anytime from any device, even offline.
Learn more »
Give kudos to tab author, rate the tab!
1 2 3 4 5
comments
print report bad tab
1 comment total.
0 reply
saveourcity 309 Aug 01, 2006 07:29 AM

I worked out the synth at the beginning as well. Goes something like (let ring the whole way through)


F E Em C G
E-------------------------------------------
B-------------------------------------------
G------------9---------------------5-7------
D--7----------------------5-----------------
A--8----------------------7-----------------
E-------------------------------------------

And repeat. It carries on through the whole track although at different timings.

guest
You may want to rate the tab now too:
select rating
Wanna post a correction for this tab? Suggest correction