Oops, an error
Loading. Please wait.

Terror tab

version 1
version 1

Whole song

Interactive

982 views 1 this week
3 commentsread comments
1 2 3 4 5
x 4
add to favorites
×
Save as Personal and add changes to this tab that will be seen only by you. Learn more ›
×
You can save this tab as Personal to edit and correct it or add notes. All changes will be seen only by you. Learn more »
launch autoscroll
font size
0
reset
how to read this tab
guitar tuner
edit
Autoscroll
slow
fast
+/-
esc
set tempo
stop
Author
Difficulty
Unregistered
Rakes - Terror - Capture/Release
Guitar and Bass
Standard Tuning
BASIC AS ANYTHING!!!! by max thornton! RAKES RULE! GO TO A GIG!

 Guitar
e|----7-------------7----------------------|
B|------8---------8----------7-------------|
G|--------9-----9----------8---------------|
D|-----------------------9-----------------|
A|-----------------------------------------|
E|-----------------------------------------|

e|----7-------------7----------------------|
B|------8---------8----------7-------------|
G|--------9-----9----------8---------------|
D|-----------------------9-----------------|
A|-----------------------------------------|
E|-----------------------------------------|

 Bass
G|--------------------------------------------------|
D|--------------------------------------------------|
A|--------------------------------------------------|
E---12-12-12-12-12-12-12-12----8-8-8-8-7-7-7-7-----|

G|--------------------------------------------------|
D|--------------------------------------------------|
A|--------------------------------------------------|
E|---12-12-12-12-12-12-12-12----8-8-8-8-7-7-7-7-----|
Suggest correction
Creating personal tab
Creating personal tab
You can edit any tab online and save it as your Personal.

You can edit, replace or remove any tab part or add personal notes – all changes will be seen only by you.

Personal tabs can be accessed anytime from any device, even offline.
Learn more »
comments
print report bad tab
3 comments total.
0 reply
chrissya8 10 Dec 03, 2005 09:24 AM

good tab. rakes are ok live, were poor when supporting franz live though

0 reply
chrissya8 10 Jan 14, 2006 07:14 AM

though i think this actually sounds better.
Guitar
e----7-------------7----------------------|
b------8---------8------------------------|
g--------9-----9------7-7/9---------------|
d-----------------------------------------|
a-----------------------------------------|
E-----------------------------------------|

0 reply
aaronni 146 Feb 17, 2006 02:20 AM

you're right there chrissy, werent great supporting
as for the tab pretty good

guest
Wanna post a correction for this tab? Suggest correction