Oops, an error
Loading. Please wait.

A Song For Future Sons bass

479 views 1 this week
no commentswrite comment
1 2 3 4 5
3 more votes to show rating
add to favorites
×
Save as Personal and add changes to this tab that will be seen only by you. Learn more ›
×
You can save this tab as Personal to edit and correct it or add notes. All changes will be seen only by you. Learn more »
launch autoscroll
font size
0
reset
guitar tuner
edit
Autoscroll
slow
fast
+/-
esc
set tempo
stop
Author
I made this tab from this cover: http://www.youtube.com/watch?v=-ofvGKCZk_s (this is not 
my cover, but its the best cover ive seen)
There might be some variations from the original song, so listen to the cover.
There are some variations that i didnt get because of the drums, but this should be 
enough to get you started.
The order of when the parts are played is at the bottom. Enjoy!

Tuning: Standard

Key:
#h# hammer-on
#p# pull off
#b# bend string to the second #


Intro 1
|----------------|
|----------------|
|----------33-55-|
|-555-3h5--------|

Intro 2
|---------------|
|--------10-----|
|-10---------12-|
|----12---------|

Verse
|-----------|
|-----------|
|-12\----10-|
|-----12----|

Pre-Chorus
|---------------------------------------|
|-----------------10-12-12b13-10--------|
|-12\------10-12------------------12----|
|------12-------------------------------|

Chorus 1
|--------------------------------------------------------|
|-7-55-44---------------------7-55-----------------------|
|----------0-5p3-0h3-5p3-----------55--0-3h5-3-5p3p0-----|
|--------------------------------------------------------|

|----------------------------------------------------------------|
|-7-55-44-------------------7-55------------------10-12-10-------|
|-----------0-5p3-0-5h3-0----------0-5---0-3-5-3-----------------|
|----------------------------------------------------------------|

Bridge
|------------------------------------|
|---------------------12-12-10-10----|
|-12-12-12-12-10h12------------------|
|------------------------------------|

Variation 1
(at the beginning of the second verse, he pauses, then plays this. the rhythm follows the vocals.)
|----------------------------|
|--------14-14-12-----14-----|
|-12-12------------15--------|
|----------------------------|

Chorus 2
|--------------------------------------------------------|
|-7-55-44--------------------7-55-----------7------------|
|----------0-5p3-0-5p3-0----------55--0-3-----7p5p3------|
|--------------------------------------------------------|

|----------------------------------------------------------------|
|-7-55-44----------------------7-55-----------------10-12-10-----|
|-----------0-5p3-0-5p3-0-------------55--0-3-5-3----------------|
|----------------------------------------------------------------|

Variation 2
|------------14-12----|
|-----12h14-----------|
|-12/-----------------|
|---------------------|

Interlude
|--------------------|
|--------------------|
|-0-0-0-0-0-0-0-0----|
|--------------------|

Variation 3
|-14--12-12--11-11--------------------|
|-------------------------------------|
|--------------------0-0-0-0-0-0-0-0--|
|-------------------------------------|

Chorus 3
|----------------------------------------14\----|
|-7-55-44-------------------7-55----------------|
|----------0-5p3-0-3h5p3----------55--0---------|
|-----------------------------------------------|

|------------------------------------------------------------|
|-7-55-44---------------------7-55---------------10-12-10----|
|----------0-3h5p3-5p3p0-----------55--0-3-5-3---------------|
|------------------------------------------------------------|

Outro
|----------------------------------------------|
|----------------------------------------------|
|----------33-55-----3-5-----3-5---10-12-10----|
|-555-3h5---------5-------5--------------------|

Order:

Intro Part 1       x4
Intro Part 2       x4
Verse                x7
Pre-Chorus       x1
Chorus 1           x1
Intro Part 1        x4
Bridge               x4
Intro Part 2        x4
Variation 1         x1
Verse                 x3
Pre-Chorus        x1
Chorus 2           x1
Verse                x3
Variation 2        x1
Verse                 x5
Interlude            (i dont know the exact number of times, just listen and you will get it)
Variation 3         x2
Chorus 3            x1
Outro                 x1


Criticism is welcome, contact me at bassboss13@gmail.com

            
            
Suggest correction
Creating personal tab
Creating personal tab
You can edit any tab online and save it as your Personal.

You can edit, replace or remove any tab part or add personal notes – all changes will be seen only by you.

Personal tabs can be accessed anytime from any device, even offline.
Learn more »
Give kudos to tab author, rate the tab!
1 2 3 4 5
comments
print report bad tab
guest
You may want to rate the tab now too:
select rating
Wanna post a correction for this tab? Suggest correction