Oops, an error
Loading. Please wait.

Infrared Tab

108 views 1 this week
no commentswrite comment
1 2 3 4 5
please rate
add to favorites
launch autoscroll
font size
0
reset
how to read this tab
guitar tuner
Tab Pro tools
  • play this tab
  • loop segment
  • change instrument
  • show fretboard
  • metronome
×
Best way to learn
"Infrared"
Autoscroll
slow
fast
+/-
esc
set tempo
stop
Contributor
Difficulty
novice
-------------------------------------------------------------------------------
                             Infrared - The Rantings of Eva
-------------------------------------------------------------------------------
Tabbed by:ferretbpdog
Email:ferretbpdog@yahoo.com

Tuning:EADGBe

e|---------------------------------------------------------------------------|
B|-10h12p10-7h8p7--7h8p7-7----10h12p10-7h8p7--7/8/10-------------------------|
G|---------------------------------------------------------------------------|
D|---------------------------------------------------------------------------|
A|---------------------------------------------------------------------------|
E|---------------------------------------------------------------------------|

e|---------------------------------------------------------------------------|
B|-10h12p10-7h8p7--7h8p7-7----10h12p10-7h8p7--7/8/10-------------------------|
G|---------------------------------------------------------------------------|
D|---------------------------------------------------------------------------|
A|---------------------------------------------------------------------------|
E|---------------------------------------------------------------------------|


    Caught in the spider web I see black and white.
e|--2----------------------2-------------------------------------------------|
B|--3----------------------3-------------------------------------------------|
G|--2----------------------2------------------22/333/666/77-22/333/666/777---|
D|--0----------------------0-------------------------------------------------|
A|--0----------------------0-------------------------------------------------|
E|---------------------------------------------------------------------------|


    Speaks in silent   we fall into grace
e|--2------------------2-----------------------------------------------------|
B|--3------------------3-------------10h12p10-7-10-7-10----------------------|
G|--2------------------2-----------------------------------------------------|
D|--0------------------0-----------------------------------------------------|
A|--0------------------0-----------------------------------------------------|
E|---------------------------------------------------------------------------|

e|---------------------------------------------------------------------------|
B|10h12p10-7-10-7h8p7--3-----------------------------------------------------|
G|---------------------------------------------------------------------------|
D|---------------------------------------------------------------------------|
A|---------------------------------------------------------------------------|
E|---------------------------------------------------------------------------|

[Chorus]

   And all this time I wonder why
e|-----------------------------------------------------------------------------|
B|-----------------------------------------------------------------------------|
G|--7------5-----4-------------------------------------------------------------|
D|--7-X-5- 5-X8--4X8-----------------------------------------------------------|
A|--5------3-----2-------------------------------------------------------------|
E|-----------------------------------------------------------------------------|
   That it could go down this way
e|-----------------------------------------------------------------------------|
B|-----------------------------------------------------------------------------|
G|---3------5------------------------------------------------------------------|
D|---3-X 4--5-X4---------------------------------------------------------------|
A|---1------3------------------------------------------------------------------|
E|-----------------------------------------------------------------------------|

   And though I'll try to force this line
e|---------------------------------------------------------------------------|
B|---------------------------------------------------------------------------|
G|--7------5------4----------------------------------------------------------|
D|--7-x-8--5-X8---4-X-8------------------------------------------------------|
A|--5------3------2----------------------------------------------------------|
E|---------------------------------------------------------------------------|


   But now I'll bless the way
e|--------------------------------------------------------------------------|
B|--------------------------------------------------------------------------|
G|---3------5---------------------------------------------------------------|
D|---3-X 4--5-X4-22/333/666/77-22/333/666/777--22/333/666/77-22/333/666/777-|
A|---1------3---------------------------------------------------------------|
E|--------------------------------------------------------------------------|

    So I told ya I'm sleeping today
e|--2----------------------2-------------------------------------------------|
B|--3----------------------3-------------------------------------------------|
G|--2----------------------2------------------22/333/666/77-22/333/666/777---|
D|--0----------------------0-------------------------------------------------|
A|--0----------------------0-------------------------------------------------|
E|---------------------------------------------------------------------------|


    Counts the numbers in his tomb like head
e|--2------------------2----------------------------------------------------|
B|--3------------------3------------10h12p10-7-10-7-10----------------------|
G|--2------------------2----------------------------------------------------|
D|--0------------------0----------------------------------------------------|
A|--0------------------0----------------------------------------------------|
E|--------------------------------------------------------------------------|

e|---------------------------------------------------------------------------|
B|10h12p10-7-10-7h8p7--3-----------------------------------------------------|
G|---------------------------------------------------------------------------|
D|---------------------------------------------------------------------------|
A|---------------------------------------------------------------------------|
E|---------------------------------------------------------------------------|

[Chorus]

   And all this time I wonder why
e|--------------------------------------------------------------------------|
B|--------------------------------------------------------------------------|
G|--7------5-----4----------------------------------------------------------|
D|--7-X-5- 5-X8--4-X8-------------------------------------------------------|
A|--5------3-----2----------------------------------------------------------|
E|--------------------------------------------------------------------------|
   That it could go down this way
e|--------------------------------------------------------------------------|
B|--------------------------------------------------------------------------|
G|---3------5---------------------------------------------------------------|
D|---3-X 4--5-X4------------------------------------------------------------|
A|---1------3---------------------------------------------------------------|
E|--------------------------------------------------------------------------|

   And though I'll try to force this line
e|--------------------------------------------------------------------------|
B|--------------------------------------------------------------------------|
G|--7------5-----4----------------------------------------------------------|
D|--7-x-8--5-X---4-X-8------------------------------------------------------|
A|--5------3-----2----------------------------------------------------------|
E|--------------------------------------------------------------------------|


   But now I'll bless the way
e|--------------------------------------------------------------------------|
B|--------------------------------------------------------------------------|
G|---3------5-------------7--5-12----4-3----7--5-12----4-3------------------|
D|---3-X 4--5-X4----------7--5-12-4--4-3----7--5-12-4--4-3------------------|
A|---1------3-------------5--3-10-4--2-1----5--3-10-4--2-1------------------|
E|--------------------------------2-----------------2-----------------------|

  Guitar Solo
e|--------------------------------------------------------------------------|
B|--------------------------------------------------------------------------|
G|--7------5------4-------3-------7-------5-----4------3--------------------|
D|--7-x-8--5-X 8--4-X-8---3 X 8----7-x-8--5-X --4-X-8--3-X-8----------------|
A|--5------3------2-------1--------5------3-----2------1--------------------|
E|--------------------------------------------------------------------------|

[Chorus]

   And all this time I wonder why
e|--------------------------------------------------------------------------|
B|--------------------------------------------------------------------------|
G|--7------5-----4----------------------------------------------------------|
D|--7-X-5- 5-X8--4-X8-------------------------------------------------------|
A|--5------3-----2----------------------------------------------------------|
E|--------------------------------------------------------------------------|
   That it could go down this way
e|--------------------------------------------------------------------------|
B|--------------------------------------------------------------------------|
G|---3------5---------------------------------------------------------------|
D|---3-X 4--5-X4------------------------------------------------------------|
A|---1------3---------------------------------------------------------------|
E|--------------------------------------------------------------------------|

   And though I'll try to force this line
e|--------------------------------------------------------------------------|
B|--------------------------------------------------------------------------|
G|--7------5-----4----------------------------------------------------------|
D|--7-x-8--5-X8--4-X-8------------------------------------------------------|
A|--5------3-----2----------------------------------------------------------|
E|--------------------------------------------------------------------------|


   But now I'll bless the way                       Caught in the spider web
e|---------------------------------------------------------------------------|
B|---------------------------------------------------------------------------|
G|--3------5------22/333/666/77-22/333/666/777--22/333/666/77-22/333/666/777-|
D|--3-X-4--5-X-4-------------------------------------------------------------|
A|--1------3-----------------------------------------------------------------|
E|---------------------------------------------------------------------------|


e|---------------------------------------------------------------------------|
B|---------------------------------------------------------------------------|
G|---7--5-12-----------------------------------------------------------------|
D|---7--5-12-4---------------------------------------------------------------|
A|---5--3-10-4---------------------------------------------------------------|
E|-----------2---------------------------------------------------------------|

| /  slide up
| \  slide down
| p  pull-off
| h  hammer-on| ~  vibrato
| +  harmonic
| x  Mute note
===============================================================================
comments
We did not receive enough feedback on this tab! Please rate:
print report bad tab
1 2 3 4 5
I want to post or [tab]
guest
You may want to rate the tab now too:
select rating
Please do not post tabs as comments. Select "correction" instead!