Oops, an error
Loading. Please wait.

Olio bass

803 views 1 this week
2 commentsread comments
1 2 3 4 5
2 more votes to show rating
add to favorites
×
Save as Personal and add changes to this tab that will be seen only by you. Learn more ›
×
You can save this tab as Personal to edit and correct it or add notes. All changes will be seen only by you. Learn more »
launch autoscroll
font size
0
reset
guitar tuner
edit
Autoscroll
slow
fast
+/-
esc
set tempo
stop
Difficulty
this song has a simple yet cool bass line
  
normal tuning (e,a,d,g)

verse
G----------------------------------------------------|
D----------------------------------------------------|
A-5-5-5-5-----5-5-5-5-0-3-----1-1-1-1-----3-3-3-1-0-3|
E----------------------------------------------------| 

G----------------------------------------------------|
D----------------------------------------3-3-3-------|
A-5-5-5-5-----5-5-5-5-0-3-----1-1-1-1-----------5-3-0|
E----------------------------------------------------|

little break down thing 
G----------------------------------------------------|
D----------------------7-----------------------------|
A----6-7-5---------6-7-------------------------------|
E-5-----------5-5------------------------------------|

the play the verse for awhile

then break down thing

instermental part
G-----------------------------7--7---------------------|
D-------6-7--5-----------6-7-------7-------------------|
A-5-5-5-----------5-5-5--------------------------------|
E------------------------------------------------------|

thats about it 

            
            
Suggest correction
Creating personal tab
Creating personal tab
You can edit any tab online and save it as your Personal.

You can edit, replace or remove any tab part or add personal notes – all changes will be seen only by you.

Personal tabs can be accessed anytime from any device, even offline.
Learn more »
Give kudos to tab author, rate the tab!
1 2 3 4 5
comments
print report bad tab
2 comments total.
0 reply
micalishis 115 Jul 11, 2012 09:17 PM

Are you sure you have the right song? I don't hear that at all.

0 reply
garethfire 538 Jan 26, 2017 02:13 PM

The notes are right, but in the verse you have too many notes.
It should go like this:

G---------|--------|--------|--------|--------|--------|--------|-------|
D---------|--------|--------|--------|--------|--------|--------|-------|
A-5-----5-|--------|5-----5-|--0-3---|1-----1-|--------|3-3-3-1-|--0-3--|
E---------|--------|--------|--------|--------|--------|--------|-------|

G---------|--------|--------|--------|--------|--------|--------|-------|
D---------|--------|--------|--------|--------|--------|3-3-3---|-------|
A-5-----5-|--------|5-----5-|--0-3---|1-----1-|--------|------5-|--3-0--|
E---------|--------|--------|--------|--------|--------|--------|-------|

guest
Wanna post a correction for this tab? Suggest correction