Oops, an error
Loading. Please wait.

Bluebelle tab

550 views 3 this week
no commentswrite comment
1 2 3 4 5
x 5
add to favorites
×
Save as Personal and add changes to this tab that will be seen only by you. Learn more ›
×
You can save this tab as Personal to edit and correct it or add notes. All changes will be seen only by you. Learn more »
launch autoscroll
font size
0
reset
how to read this tab
guitar tuner
edit
Autoscroll
slow
fast
+/-
esc
set tempo
stop
Frank Carter and the Rattlesnakes - Bluebelle

Straight from the Modern Ruin book so this tab is exactly how it is played on Modern Ruin
Tuning - 1/2 step down


eb|------------|------------|------------|-----------|
Bb|------------|------------|------------|-----------|
Gb|------------|------------|------------|-----------|
Db|-------9----|-------9----|-------9----|-------9---|
Ab|-----9---9--|-----9---9--|-----9---9--|-----9---9-|
Eb|--10--------|--10--------|--10--------|--10-------|

eb|------------|------------|------------|-----------|
Bb|------------|------------|------------|-----------|
Gb|------------|------------|------------|-----------|
Db|-------9----|-------9----|-------9----|-------9---|
Ab|-----9---9--|-----9---9--|-----9---9--|-----9---9-|
Eb|--10--------|--10--------|--10--------|--10-------| 

eb|-----------|-----------|------------|-----------|
Bb|-----------|-----------|------------|-----------|
Gb|-----------|-----------|------------|-----------|
Db|------2----|------4----|-------9----|-------9---|
Ab|----2---2--|----4---4--|-----9---9--|-----9---9-|
Eb|--3--------|--5--------|--10--------|--10-------|

eb|------------|------------|------------|-----------|
Bb|------------|------------|------------|-----------|
Gb|------------|------------|------------|-----------|
Db|-------9----|-------9----|-------9----|-------9---|
Ab|-----9---9--|-----9---9--|-----9---9--|-----9---9-|
Eb|--10--------|--10--------|--10--------|--10-------|

eb|------------|------------|-----------|----------|
Bb|------------|------------|-----------|----------|
Gb|------------|------------|-----------|----------|
Db|-------9----|-------9----|------2----|------4---|
Ab|-----9---9--|-----9---9--|----2---2--|----4---4-|
Eb|--10--------|--10--------|--3--------|--5-------|

eb|------------|------------|-----------|----------|
Bb|------------|------------|-----------|----------|
Gb|------------|------------|-----------|----------|
Db|-------9----|-------9----|------2----|------4---|
Ab|-----9---9--|-----9---9--|----2---2--|----4---4-|
Eb|--10--------|--10--------|--3--------|--5-------|

eb|------------|------------|
Bb|------------|------------|
Gb|------------|------------|
Db|-------9----|------------|
Ab|-----9---9--|------------|
Eb|--10--------|--10~-------|

            
            
Suggest correction
Creating personal tab
Creating personal tab
You can edit any tab online and save it as your Personal.

You can edit, replace or remove any tab part or add personal notes – all changes will be seen only by you.

Personal tabs can be accessed anytime from any device, even offline.
Learn more »
comments
print report bad tab
guest
You may want to rate the tab now too:
select rating
Wanna post a correction for this tab? Suggest correction