Oops, an error
Loading. Please wait.

Lullaby tab

1,315 views 21 this week
no commentswrite comment
1 2 3 4 5
x 4
add to favorites
×
Save as Personal and add changes to this tab that will be seen only by you. Learn more ›
×
You can save this tab as Personal to edit and correct it or add notes. All changes will be seen only by you. Learn more »
launch autoscroll
font size
0
reset
how to read this tab
guitar tuner
edit
Autoscroll
slow
fast
+/-
esc
set tempo
stop
Frank Carter And The Rattlesnakes - Lullaby

Straight from the Modern Ruin book so this tab is exactly how it is played on Modern Ruin
Tuning - 1/2 Step Down

Intro/Verse:   
eb|------------------------|------------------------------|                  |
Bb|------------------------|------------------------------|                  |
Gb|------------------------|------------------------------|                  |
Db|------------------------|------------------------------|                  | 
Ab|------------------------|------------------------------|                  |
Eb|5-5-5-8-5-5-5-5-5-8-5-5-|5-5-5-8-5-5-10-10-10-10-10-10-|                  |
                                                                             | x6
eb|--------------------------|-------------------------------|               |
Bb|--------------------------|-------------------------------|               |
Gb|--------------------------|-------------------------------|               |
Db|--------------------------|-------------------------------|               |
Ab|7-7-7-10-7-7-7-7-7-10-7-7-|7-7-7-10-7-7-12-12-12-12-12-12-|               |
Eb|--------------------------|-------------------------------|               

Chorus 1:
eb|-------------------------|-------------------------------|
Bb|-------------------------|-------------------------------|
Gb|-------------------------|-12-12-12-12-12-12-9-9-9-9-9-9-|
Db|-7-7-7-7-7-7-7-7-7-7-7-7-|-12-12-12-12-12-12-9-9-9-9-9-9-|
Ab|-7-7-7-7-7-7-7-7-7-7-7-7-|-10-10-10-10-10-10-7-7-7-7-7-7-|
Eb|-5-5-5-5-5-5-5-5-5-5-5-5-|-------------------------------|

eb|-------------------------------------|-------------------------|
Bb|-------------------------------------|-------------------------|
Gb|-------------------------------------|-------------------------|
Db|-10-10-10-10-10-10-10-10-10-10-10-10-|-9-9-9-9-9-9-8-8-8-8-8-8-|
Ab|-10-10-10-10-10-10-10-10-10-10-10-10-|-9-9-9-9-9-9-8-8-8-8-8-8-|
Eb|--8--8--8--8--8--8--8--8--8--8--8--8-|-7-7-7-7-7-7-6-6-6-6-6-6-|

Verse:
eb|------------------------|------------------------------|                 |
Bb|------------------------|------------------------------|                 |
Gb|------------------------|------------------------------|                 |
Db|------------------------|------------------------------|                 |
Ab|------------------------|------------------------------|                 |
Eb|5-5-5-8-5-5-5-5-5-8-5-5-|5-5-5-8-5-5-10-10-10-10-10-10-|                 |
                                                                            | x2
eb|--------------------------|-------------------------------|              |
Bb|--------------------------|-------------------------------|              |
Gb|--------------------------|-------------------------------|              |
Db|--------------------------|-------------------------------|              |
Ab|7-7-7-10-7-7-7-7-7-10-7-7-|7-7-7-10-7-7-12-12-12-12-12-12-|              |
Eb|--------------------------|-------------------------------|              |

Chorus 2:
eb|-------------------------|-------------------------------|               |
Bb|-------------------------|-------------------------------|               |
Gb|-------------------------|-12-12-12-12-12-12-9-9-9-9-9-9-|               |
Db|-7-7-7-7-7-7-7-7-7-7-7-7-|-12-12-12-12-12-12-9-9-9-9-9-9-|               |
Ab|-7-7-7-7-7-7-7-7-7-7-7-7-|-10-10-10-10-10-10-7-7-7-7-7-7-|               |
Eb|-5-5-5-5-5-5-5-5-5-5-5-5-|-------------------------------|               |
                                                                            | x2
eb|-------------------------------------|-------------------------|         |
Bb|-------------------------------------|-------------------------|         |
Gb|-------------------------------------|-------------------------|         |
Db|-10-10-10-10-10-10-10-10-10-10-10-10-|-9-9-9-9-9-9-8-8-8-8-8-8-|         |
Ab|-10-10-10-10-10-10-10-10-10-10-10-10-|-9-9-9-9-9-9-8-8-8-8-8-8-|         |
Eb|--8--8--8--8--8--8--8--8--8--8--8--8-|-7-7-7-7-7-7-6-6-6-6-6-6-|         |


eb|-------------------------------------|-------------------------|         |
Bb|-------------------------------------|-------------------------|         |
Gb|-14-14-14-14-14-14-14-14-14-14-14-14-|-9-9-9-9-9-9-9-9-9-9-9-9-|         |
Db|-14-14-14-14-14-14-14-14-14-14-14-14-|-9-9-9-9-9-9-9-9-9-9-9-9-|         |
Ab|-12-12-12-12-12-12-12-12-12-12-12-12-|-7-7-7-7-7-7-7-7-7-7-7-7-|         |
Eb|-------------------------------------|-------------------------|         |
                                                                            | x2 
eb|-------------------------------------|-------------------------|         |
Bb|-------------------------------------|-------------------------|         |
Gb|-------------------------------------|-------------------------|         |
Db|-10-10-10-10-10-10-10-10-10-10-10-10-|-9-9-9-9-9-9-8-8-8-8-8-8-|         |
Ab|-10-10-10-10-10-10-10-10-10-10-10-10-|-9-9-9-9-9-9-8-8-8-8-8-8-|         |
Eb|--8--8--8--8--8--8--8--8--8--8--8--8-|-7-7-7-7-7-7-6-6-6-6-6-6-|         |

Bridge:
eb|---------------------|---------------------|                             |
Bb|---------------------|---------------------|                             |
Gb|---------------------|---------------------|                             |
Db|---------------------|---------------------|                             |
Ab|---------------------|---------------------|                             |
Eb|-5--5-5--5-5--5-5--5-|-8--8-8--8-8--8-8--8-|                             |  
    *  * *  * *  * *  *   *  * *  * *  * *  *                               | x2
eb|-----------------------------|-----------------------------|             |
Bb|-----------------------------|-----------------------------|             |
Gb|-----------------------------|-----------------------------|             |
Db|-----------------------------|-----------------------------|             |
Ab|-----------------------------|-----------------------------|             |
Eb|-12--12-12--12-12--12-12--12-|-11--11-11--11-10--10-10--10-|             |
     *   *  *   *  *   *  *   *    *   *  *   *  *   *  *   *
eb|---------------------|-------------------------|
Bb|---------------------|-------------------------|
Gb|---------------------|-------------------------|
Db|------7--7------7--7-|------10--10------10--10-|
Ab|------7--7------7--7-|------10--10------10--10-|
Eb|-5--5-5--5-5--5-5--5-|-8--8--8---8-8--8--8---8-|
    *  *      *  *        *  *        *  *         

eb|-----------------------------|-----------------------------|
Bb|-----------------------------|-----------------------------|
Gb|-----------------------------|-----------------------------|
Db|--------14--14--------14--14-|--------13--13--------12--12-|
Ab|--------14--14--------14--14-|--------13--13--------12--12-|
Eb|-12--12-12--12-12--12-12--12-|-11--11-11--11-10--10-10--10-|
     *   *         *   *           *   *         *   *

eb|---------------------|-------------------------|
Bb|---------------------|-------------------------|
Gb|---------------------|-------------------------|
Db|------7--7------7--7-|------10--10------10--10-|
Ab|------7--7------7--7-|------10--10------10--10-|
Eb|-5--5-5--5-5--5-5--5-|-8--8--8---8-8--8--8---8-|

eb|-----------------------------|-----------------------------------|
Bb|-----------------------------|-----------------------------------|
Gb|-----------------------------|-----------------------------------|
Db|--------14--14--------14--14-|--------13-13-12-12-12-12-12-12-12-|
Ab|--------14--14--------14--14-|--------13-13-12-12-12-12-12-12-12-|
Eb|-12--12-12--12-12--12-12--12-|-11--11-11-11-10-10-10-10-10-10-10-|

eb|---------------------|-----------------------------|                   |
Bb|---------------------|-----------------------------|                   |
Gb|---------------------|-----------------------------|                   |
Db|-7--7-7--7-7--7-7--7-|-10--10-10--10-10--10-10--10-|                   |
Ab|-7--7-7--7-7--7-7--7-|-10--10-10--10-10--10-10--10-|                   |
Eb|-5--5-5--5-5--5-5--5-|--8---8--8---8--8---8--8---8-|                   |
                                                                          | x2
eb|-----------------------------|-----------------------------|           |
Bb|-----------------------------|-----------------------------|           |
Gb|-----------------------------|-----------------------------|           |
Db|-14--14-14--14-14--14-14--14-|-13--13-13--13-12--12-12--12-|           |
Ab|-14--14-14--14-14--14-14--14-|-13--13-13--13-12--12-12--12-|           |
Eb|-12--12-12--12-12--12-12--12-|-11--11-11--11-10--10-10--10-|           |

Chorus 2:
eb|-------------------------|-------------------------------|
Bb|-------------------------|-------------------------------| 
Gb|-------------------------|-12-12-12-12-12-12-9-9-9-9-9-9-|  
Db|-7-7-7-7-7-7-7-7-7-7-7-7-|-12-12-12-12-12-12-9-9-9-9-9-9-|   
Ab|-7-7-7-7-7-7-7-7-7-7-7-7-|-10-10-10-10-10-10-7-7-7-7-7-7-|    
Eb|-5-5-5-5-5-5-5-5-5-5-5-5-|-------------------------------|     
                                                                  
eb|-------------------------------------|-------------------------|
Bb|-------------------------------------|-------------------------|
Gb|-------------------------------------|-------------------------|
Db|-10-10-10-10-10-10-10-10-10-10-10-10-|-9-9-9-9-9-9-8-8-8-8-8-8-|
Ab|-10-10-10-10-10-10-10-10-10-10-10-10-|-9-9-9-9-9-9-8-8-8-8-8-8-|
Eb|--8--8--8--8--8--8--8--8--8--8--8--8-|-7-7-7-7-7-7-6-6-6-6-6-6-|

eb|-------------------------|-------------------------------|
Bb|-------------------------|-------------------------------|
Gb|-------------------------|-12-12-12-12-12-12-9-9-9-9-9-9-|
Db|-7-7-7-7-7-7-7-7-7-7-7-7-|-12-12-12-12-12-12-9-9-9-9-9-9-|
Ab|-7-7-7-7-7-7-7-7-7-7-7-7-|-10-10-10-10-10-10-7-7-7-7-7-7-|
Eb|-5-5-5-5-5-5-5-5-5-5-5-5-|-------------------------------|

eb|-------------------------------------|-------------|
Bb|-------------------------------------|-------------|
Gb|-------------------------------------|-------------|
Db|-10-10-10-10-10-10-10-10-10-10-10-10-|-9-9-9-9-9-9-|
Ab|-10-10-10-10-10-10-10-10-10-10-10-10-|-9-9-9-9-9-9-|
Eb|--8--8--8--8--8--8--8--8--8--8--8--8-|-7-7-7-7-7-7-|

            
            
Suggest correction
Creating personal tab
Creating personal tab
You can edit any tab online and save it as your Personal.

You can edit, replace or remove any tab part or add personal notes – all changes will be seen only by you.

Personal tabs can be accessed anytime from any device, even offline.
Learn more »
comments
print report bad tab
guest
You may want to rate the tab now too:
select rating
Wanna post a correction for this tab? Suggest correction