Oops, an error
Loading. Please wait.

My Revenge intro tab

109 views 1 this week
no commentswrite comment
1 2 3 4 5
3 more votes to show rating
add to favorites
×
Save as Personal and add changes to this tab that will be seen only by you. Learn more ›
×
You can save this tab as Personal to edit and correct it or add notes. All changes will be seen only by you. Learn more »
launch autoscroll
font size
0
reset
how to read this tab
guitar tuner
edit
Autoscroll
slow
fast
+/-
esc
set tempo
stop
Artist: The Raven Age
Track: My Revenge
Album: Darkness Will Rise
Tuning: Drop A#
Tabs by: Amerijckbeheerder

Some of you may know I took it upon myself to tab out (if posible) 
all tracks from The Raven Age's debut album. There are parts I can't figure out myself, therefore I'm sharing
everything I have up until now. People that are interested can collaborate to my effort and make it a joint
effort to tab out as many tracks as I/we can. Enjoy and thanks in advance!

\\\///
Track 10. My Revenge
Tempo: 107 BPM

[Intro 1 - GT1]

C |-------------------------------------|-------------------------------------|
G |-------------------------------------|-------------------------------------|
D#|-------------------------------------|-------------------------------------|
A#|-----0-----------------0-------------|-----0-----------------0-------------|
F |-------------------------------------|-------------------------------------|
A#|--0-----0---3---1---0-----0---3---5--|--0----0-0--3---1---0----0-0--3---5--|

C |-------------------------------------|-------------------------------------|
G |-------------------------------------|-------------------------------------|
D#|-------------------------------------|-------------------------------------|
A#|-----0--------------0------0---------|-----0--------------0------0---------|
F |-------------------------------------|-------------------------------------|
A#|--0----0-0---3-3--3---3--1---1-------|--0----0-0---3-3--3---3--5---5-------|

[Intro 1 - GT 2] Play this underneath the clean riff GT1 plays. Leading into the heavy intro

C |-------------------------------------------------------|
G |--3---3---3---3---8---8---8---8---6---6---6---6--------|
D#|----0---0---0---0---0---0---0---0---0---0---0---0------|
A#|-------------------------------------------------------|
F |-------------------------------------------------------|
A#|-------------------------------------------------------|

C |-------------------------------------------------------|
G |--3---3---3---3---8---8---8---8---11---11---11---11----|
D#|----0---0---0---0---0---0---0---0----0----0----0----0--|
A#|-------------------------------------------------------|
F |-------------------------------------------------------|
A#|-------------------------------------------------------|

[Intro 2 - GT 1]

C |-----------------|-----------------|-------------|-----------------|
G |-----------------|-----------------|-------------|-----------------|
D#|-----------------|-----------------|-------------|-----------------|
A#|------0----3--1--|--0----3--5------|--0----3--1--|------0----3--1--|
F |--0-0-0----3--1--|--0----3--5------|--0----3--1--|--0-0-0----3--1--|
A#|--0-0-0----3--1--|--0----3--5--7v--|--0----3--1--|--0-0-0----3--1--|
PM   * *                                               * *

[Intro 2 - GT 2] 

C |-------------------------------------------------------|
G |--3---3---3---3---8---8---8---8---6---6---6---6--------|
D#|----0---0---0---0---0---0---0---0---0---0---0---0------|
A#|-------------------------------------------------------|
F |-------------------------------------------------------|
A#|-------------------------------------------------------|

C |-------------------------------------------------------|
G |--3---3---3---3---8---8---8---8---11---11---11---------|
D#|----0---0---0---0---0---0---0---0----0----0----0-------|
A#|-------------------------------------------------------|
F |-------------------------------------------------------|
A#|-------------------------------------------------------|

[Intro 3 - Both guitars]

C |------------------------------------------------------------------------------------------|
G |------------------------------------------------------------------------------------------|
D#|------------------------------------------------------------------------------------------|
A#|------------------------------------------------------------------------------------------|
F |--5-----5-3-6-5-----------5-6-8-6-5-6-5-6--5-----5-3-6-5----------------------------------|
A#|----0-0---------0-0-0--0---------------------0-0---------0-0-0--0--0-0-0-0-0-10-8-7-8-7-8-|
PM     * *         * *                          * *         * *       * * * * *

C |------------------------------------------------------------------------------------------|
G |------------------------------------------------------------------------------------------|
D#|------------------------------------------------------------------------------------------|
A#|------------------------------------------------------------------------------------------|
F |--5-----5-3-6-5-----------5-6-8-6-5-6-5-6--5-----5-3-6-5-----------------------8-7--5--3--|
A#|----0-0---------0-0-0--0---------------------0-0---------0-0-0--0--0-0-0-0-0-0-8-7--5--3--|
PM     * *         * *                          * *         * *       * * * * * * 

C |------------------------------------------------------------------------------------------|
G |------------------------------------------------------------------------------------------|
D#|------------------------------------------------------------------------------------------|
A#|------------------------------------------------------------------------------------------|
F |--5-----5-3-6-5-----------5-6-8-6-5-6-5-6--5-----5-3-6-5----------------------------------|
A#|----0-0---------0-0-0--0---------------------0-0---------0-0-0--0--0-0-0-0-0-10-8-7-8-7-8-|
PM     * *         * *                          * *         * *       * * * * *

C |------------------------------------------------------------------------------------------|
G |------------------------------------------------------------------------------------------|
D#|------------------------------------------------------------------------------------------|
A#|------------------------------------------------------------------------------------------|
F |--5-----5-3-6-5-----------5-6-8-6-5-6-5-6--5-----5-3-6-5-----------------------8-7--5--3--|
A#|----0-0---------0-0-0--0---------------------0-0---------0-0-0--0--0-0-0-0-0-0-8-7--5--3--|
PM     * *         * *                          * *         * *       * * * * * * 

[Verse 1 - Both guitars]
C |------------------------------------------------------------------------------------------|
G |------------------------------------------------------------------------------------------|
D#|------------------------------------------------------------------------------------------|
A#|------------------------------------------------------------------------------------------|
F |--5-----5-3-6-5-----------5-6-8-6-5-6-5-6--5-----5-3-6-5----------------------------------|
A#|----0-0---------0-0-0--0---------------------0-0---------0-0-0--0--0-0-0-0-0-10-8-7-8-7-8-|
PM     * *         * *                          * *         * *       * * * * *

C |------------------------------------------------------------------------------------------|
G |------------------------------------------------------------------------------------------|
D#|------------------------------------------------------------------------------------------|
A#|------------------------------------------------------------------------------------------|
F |--5-----5-3-6-5-----------5-6-8-6-5-6-5-6--5-----5-3-6-5-----------------------8-7--5--3--|
A#|----0-0---------0-0-0--0---------------------0-0---------0-0-0--0--0-0-0-0-0-0-8-7--5--3--|
PM     * *         * *                          * *         * *       * * * * * * 

C |------------------------------------------------------------------------------------------|
G |------------------------------------------------------------------------------------------|
D#|------------------------------------------------------------------------------------------|
A#|------------------------------------------------------------------------------------------|
F |--5-----5-3-6-5-----------5-6-8-6-5-6-5-6--5-----5-3-6-5----------------------------------|
A#|----0-0---------0-0-0--0---------------------0-0---------0-0-0--0--0-0-0-0-0-10-8-7-8-7-8-|
PM     * *         * *                          * *         * *       * * * * *

C |------------------------------------------------------------------------------------------|
G |------------------------------------------------------------------------------------------|
D#|------------------------------------------------------------------------------------------|
A#|------------------------------------------------------------------------------------------|
F |--5-----5-3-6-5-----------5-6-8-6-5-6-5-6--5-----5-3-6-5-----------------------8-7--5--3--|
A#|----0-0---------0-0-0--0---------------------0-0---------0-0-0--0--0-0-0-0-0-0-8-7--5--3--|
PM     * *         * *                          * *         * *       * * * * * * 

[Pre-Chorus - Both guitars] figure out strumming pattern by listening to the offical recording.

C |----------------------|-----------------|--------------------|------------|
G |----------------------|-----------------|--------------------|------------|
D#|--3----5----7----5----|--3----5----2----|--3----5----7----5--|--3----5----|
A#|--3----5----7----5----|--3----5----2----|--3----5----7----5--|--3----5----|
F |--1----3----5----3----|--1----3----0----|--1----3----5----3--|--1----3----|
A#|----------------------|-----------------|--------------------|------------|

[Main riff - GT 1]

C |------------------------------------------------------------------------------------------|
G |------------------------------------------------------------------------------------------|
D#|------------------------------------------------------------------------------------------|
A#|------------------------------------------------------------------------------------------|
F |--5-----5-3-6-5-----------5-6-8-6-5-6-5-6--5-----5-3-6-5----------------------------------|
A#|----0-0---------0-0-0--0---------------------0-0---------0-0-0--0--0-0-0-0-0-10-8-7-8-7-8-|
PM     * *         * *                          * *         * *       * * * * *
C |------------------------------------------------------------------------------------------|
G |------------------------------------------------------------------------------------------|
D#|------------------------------------------------------------------------------------------|
A#|------------------------------------------------------------------------------------------|
F |--5-----5-3-6-5-----------5-6-8-6-5-6-5-6--5-----5-3-6-5-----------------------8-7--5--3--|
A#|----0-0---------0-0-0--0---------------------0-0---------0-0-0--0--0-0-0-0-0-0-8-7--5--3--|
PM     * *         * *                          * *         * *       * * * * * * 

[Main riff - GT2 Harmony]
C |------------------------------------------------------------------------------------------|
G |------------------------------------------------------------------------------------------|
D#|------------------------------------------------------------------------------------------|
A#|------------------------------------------------------------------------------------------|
F |--5-----5-3-6-5-----------5-6-8-6-5-6-5-6--5-----5-3-6-5----------------------------------|
A#|----0-0---------0-0-0--0---------------------0-0---------0-0-0--0--0-0-0-0-0-10-8-7-8-7-8-|
PM     * *         * *                          * *         * *       * * * * *

C |-------------------------------------------------------------------------------------------------|
G |-------------------------------------------------------------------------------------------------|
D#|-------------------------------------------------------------------------------------------------|
A#|-------------------------------------------------------------------------------------------------|
F |--8-----8-7-10-8-----------8-10-12-10-8-10-8-10--8-----8-7-10-8-----------------------8-7--5--3--|
A#|----0-0----------0-0-0--0--------------------------0-0----------0-0-0--0--0-0-0-0-0-0-8-7--5--3--|
PM     * *          * *                               * *          * *       * * * * * * 

[Verse 2 - Both guitars] All notes are palm muted ! Except the endings of the riff, see '> <'

C |-------------------------------------------------------------------------------------------|
G |-------------------------------------------------------------------------------------------|
D#|-------------------------------------------------------------------------------------------|
A#|-------------------------------------------------------------------------------------------|
F |--5-----5-3-6-5-----------5-6-8-6-5-6-5-6--5-----5-3-6-5-----------------------------------|
A#|----0-0---------0-0-0--0---------------------0-0---------0-0-0--0--0-0-0-0-0->10-8-7-8-7-8<|
 

C |-------------------------------------------------------------------------------------------|
G |-------------------------------------------------------------------------------------------|
D#|-------------------------------------------------------------------------------------------|
A#|-------------------------------------------------------------------------------------------|
F |--5-----5-3-6-5-----------5-6-8-6-5-6-5-6--5-----5-3-6-5------------------------8-7--5--3--|
A#|----0-0---------0-0-0--0---------------------0-0---------0-0-0--0--0-0-0-0-0-0->8-7--5--3-<|


C |-------------------------------------------------------------------------------------------|
G |-------------------------------------------------------------------------------------------|
D#|-------------------------------------------------------------------------------------------|
A#|-------------------------------------------------------------------------------------------|
F |--5-----5-3-6-5-----------5-6-8-6-5-6-5-6--5-----5-3-6-5-----------------------------------|
A#|----0-0---------0-0-0--0---------------------0-0---------0-0-0--0--0-0-0-0-0->10-8-7-8-7-8<|
 

C |-------------------------------------------------------------------------------------------|
G |-------------------------------------------------------------------------------------------|
D#|-------------------------------------------------------------------------------------------|
A#|-------------------------------------------------------------------------------------------|
F |--5-----5-3-6-5-----------5-6-8-6-5-6-5-6--5-----5-3-6-5------------------------8-7--5--3--|
A#|----0-0---------0-0-0--0---------------------0-0---------0-0-0--0--0-0-0-0-0-0->8-7--5--3-<|

[Pre-Chorus 2 - Both guitars]

C |----------------------|-----------------|--------------------|-----------------|
G |----------------------|-----------------|--------------------|-----------------|
D#|--3----5----7----5----|--3----5----2----|--3----5----7----5--|--3----5---------|
A#|--3----5----7----5----|--3----5----2----|--3----5----7----5--|--3----5----7----|
F |--1----3----5----3----|--1----3----0----|--1----3----5----3--|--1----3----5--< play 8x-|
A#|----------------------|-----------------|--------------------|------------0----|
PM                                                                           *

[Bridge 1]

C |---------------------------------------------------|--------------------------------------|
G |---------------------------------------------------|--------------------------------------|
D#|---------------------------------------------------|---------------------------5--8---7\--|
A#|---------------------------------------------------|---------------------------x--x---x---|
F |---------------------------------------------------|---------------------------3--6---5\--|
A#|--000-0-0-0-0-000-0-0-0-0-000-0-0-0-0-1-0-1-0-1-3--|--000-0-0-0-0-000-0-0-0-0-------------|
PM   *** * * * * *** * * * * *** * * * *   *   *         *** * * * * *** * * * *


************************************

| x   Dead note
| \   Slide down
| *   Palm mute

************************************
Suggest correction
Creating personal tab
Creating personal tab
You can edit any tab online and save it as your Personal.

You can edit, replace or remove any tab part or add personal notes – all changes will be seen only by you.

Personal tabs can be accessed anytime from any device, even offline.
Learn more »
Give kudos to tab author, rate the tab!
1 2 3 4 5
comments
print report bad tab
guest
You may want to rate the tab now too:
select rating
Wanna post a correction for this tab? Suggest correction