Oops, an error
Loading. Please wait.

Lust tab

4,614 views 3 this week
2 commentsread comments
1 2 3 4 5
x 4
add to favorites
×
Save as Personal and add changes to this tab that will be seen only by you. Learn more ›
×
You can save this tab as Personal to edit and correct it or add notes. All changes will be seen only by you. Learn more »
launch autoscroll
font size
0
reset
how to read this tab
guitar tuner
edit
Autoscroll
slow
fast
+/-
esc
set tempo
stop
Tune down half a step.

Am               C/G
I fell out of heaven
D                F     G
to be with you in hell
Am               C/G
my sin's not quite seven
D                F     G
nothing much to tell

lust I have and crave
a saintly boy I'm not
I take it to my grave
beside it cursed i'll rot

I ride these roads alone
beneath the sulfur sky
everywhere I roam
life is one big lie

when the fireball goes down
out by LA waste
I come into town
but only for a day

i'm starving on my knees
I pray for you to understand
a man sure is weak
but lust holds my hand

I struggle and I cry
I pounce with no avail
at least I never lied
or did the truth derail

"solo"

This is roughly the pattern.  It's simply bar chord A.

Eb-----------------------------------------------------|
Bb-----------------------------------------------------|
Gb-----------------------------------------------------|
Db----7--5---------------------------------------------|
Ab----------7--5h7--7--7--5--7--5----------------------|
Eb-5---------------------------------------------------|

Alternatively, here's a single person method of playing the solo with the chords:

Eb----0-------------0----------2-----------1-----3----------|
Bb----1-------------1----------3-----------1-----3----------|
Gb----2--0----------0----------2--0--------2-----4----------|
Db----2-----2--0h2--2--2--0--0-0-----2--3--3--3--5----------|
Ab-0--0-------------3----------x-----------3-----5----------|
Eb----x-------------3----------x-----------1-----3----------|

I recommend adding fills with your index finger between the single notes.

- Arysteia
Suggest correction
Creating personal tab
Creating personal tab
You can edit any tab online and save it as your Personal.

You can edit, replace or remove any tab part or add personal notes – all changes will be seen only by you.

Personal tabs can be accessed anytime from any device, even offline.
Learn more »
comments
print report bad tab
2 comments total.
0 reply
Bran85 21 Jan 10, 2011 10:35 AM

Great tab, try the fill like this:

(4) -5-
(5) -7- -7- -5-7-7-5-7-5-
(6)-5-5 -5-

Other fill . . .

(4)-7-5-
(5) -7-

0 reply
Bran85 21 Jan 10, 2011 10:36 AM

Ignore that last one, came out completely different to how I typed it.

guest
You may want to rate the tab now too:
select rating
Wanna post a correction for this tab? Suggest correction