Oops, an error
Loading. Please wait.

Twilight bass

76 views 1 this week
no commentswrite comment
1 2 3 4 5
3 more votes to show rating
add to favorites
×
Save as Personal and add changes to this tab that will be seen only by you. Learn more ›
×
You can save this tab as Personal to edit and correct it or add notes. All changes will be seen only by you. Learn more »
launch autoscroll
font size
0
reset
guitar tuner
edit
Autoscroll
slow
fast
+/-
esc
set tempo
stop
Author
-------------------------------------------------------------------------------
                             Twilight - The Raveonettes
-------------------------------------------------------------------------------
Tabbed by: Aidan Peel
E-mail: Aidan.zpeel@gmail.com

Tuning: Standard

Haven't added the timings as I usually do but it's very easy to pick it up. It's not a perfect tab
but the general notes should be correct, just the amount of times each note is played in the Verses are off.

Verse
G|-----8--8--8--8--8--8--8--8--8--8--8--8--8--8--------|
D|-----------------------------------------------------|
A|-5-6--6--6--6--6--6--6--6--6--6--6--6--6--6--6-------|
E|-----------------------------------------------------|

Verse Variation
G|----------------------------------------------|
D|-----6--6--6--6--6--6--6--6--6--6--6----------|
A|----------------------------------------------|
E|-3-4--4--4--4--4--4--4--4--4--4--4--4---------|

Chorus
G|-------------------------------------------|
D|--------------------------------------------|
A|-8-8--11-11--6-6--9-9--6---------------------|
E|--------------------------------------------|

After the break, when the bass adds the effect
G|-----8--8--8--8--8--8----8--8--8--8--8--8--8--8--------|
D|-------------------------------------------------------|
A|-5-6--6--6--6--6--6--5-6--6--6--6--6--6--6--6--6-------|
E|-------------------------------------------------------|

G|------------6--6----8--8--8--8--------------------|
D|---9--9-------------------------------------------|
A|----------4--4----6--6--6--6----------------------|
E|-7--7---------------------------------------------|


| /  slide up
| \  slide down
| h  hammer-on
| p  pull-off
| ~  vibrato
| +  harmonic
| x  Mute note
===============================================================================

            
            
Suggest correction
Creating personal tab
Creating personal tab
You can edit any tab online and save it as your Personal.

You can edit, replace or remove any tab part or add personal notes – all changes will be seen only by you.

Personal tabs can be accessed anytime from any device, even offline.
Learn more »
Give kudos to tab author, rate the tab!
1 2 3 4 5
comments
print report bad tab
guest
You may want to rate the tab now too:
select rating
Wanna post a correction for this tab? Suggest correction