Oops, an error
Loading. Please wait.

Love Like Woe Bass Tab

6,187 views 1 this week
no commentswrite comment
1 2 3 4 5
3 more votes to show rating
add to favorites
launch autoscroll
font size
0
reset
guitar tuner
Autoscroll
slow
fast
+/-
esc
set tempo
stop
Help us to improve Ultimate-Guitar.com Take our survey!
×
Author
Difficulty
intermediate
-------------------------------------------------------------------------------
			     Love Like Woe - The Ready Set
-------------------------------------------------------------------------------

Tabbed By : Dylan Eurich
e-mail: dme3k@uvawise.edu

Tuning: EADG

INTRO - come in after piano
G|--------------------------------------------------------------------------|
D|------------------------0~-----0~-1~--------------------------------------|
A|---1~---1h3p1-------------------------------------------------------------|
E|--------------3------3----------------------------------------------------|

Verse 1 x2
G|--------------------------------------------------------------------------|
D|--------------------------------------------------------------------------|
A|--1-1-1-1-1-1-1-1h3p1-----------------------------------------------------|
E|----------------------3-3-3-3---------------------------------------------|

Pre-chorus
G|--------------------------------------------------------------------------|
D|--------------------------------------------------------------------------|
A|--1-1-1-1-1-1-1-1h3p1--------------0~-------------------------------------|
E|----------------------3-3-3-3-3-3-----------------------------------------|

Chorus x2
G|--------------------------------------------------------------------------|
D|---------------------0~--0~-1~--------------------------------------------|
A|--1~--1h3p1--------0------------------------------------------------------|
E|-------------3~--3~-------------------------------------------------------|


Verse 2
G|--------------------------------------------------------------------------|
D|--------------------------------------------------------------------------|
A|--1-1-1-1-1-1-1-1h3p1-----------------------------------------------------|
E|----------------------3-3-3-3---------------------------------------------|

G|--------------------------------------------------------------------------|
D|--------------------------------------------------------------------------|
A|--1-1-1-1-1-1-(pause)-1h3p1-----------------------------------------------|
E|----------------------------3-3-3-3---------------------------------------|

Pre-chorus
G|--------------------------------------------------------------------------|
D|--------------------------------------------------------------------------|
A|--1-1-1-1-1-1-1-1h3p1--------------------0~-------------------------------|
E|----------------------(pause)-3-3-3-3-3-----------------------------------|

Chorus x2
G|--------------------------------------------------------------------------|
D|---------------------0~--0~-1~--------------------------------------------|
A|--1~--1h3p1--------0------------------------------------------------------|
E|-------------3~--3~-------------------------------------------------------|

Bridge-
come in at ...be just fine, wait a little bit, then play again at be just fine
G|--------------------------------------------------------------------------|
D|------3~--------3~--------------------------------------------------------|
A|--------------------------------------------------------------------------|
E|--------------------------------------------------------------------------|

Chorus - First time no bass
G|--------------------------------------------------------------------------|
D|---------------------0~---------------------------------------------------|
A|--1~----------------------------------------------------------------------|
E|-------------3~-----------------------------------------------------------|

Chorus till end
G|--------------------------------------------------------------------------|
D|---------------------0~--0~-1~--------------------------------------------|
A|--1~--1h3p1---------------------------------------------------------------|
E|-------------3~--3~-------------------------------------------------------|


| /  slide up
| \  slide down
| h  hammer-on
| p  pull-off
| ~  vibrato
| +  harmonic
| x  Mute note
===============================================================================
Suggest correction
Give kudos to tab author, rate the tab!
1 2 3 4 5
comments
print report bad tab
guest
You may want to rate the tab now too:
select rating
Wanna post a correction for this tab? Suggest correction