Oops, an error
Loading. Please wait.

Love Like Woe Tab

version 2
version 2

Whole song

2,969 views 1 this week
no commentswrite comment
1 2 3 4 5
please rate
add to favorites
launch autoscroll
font size
0
reset
how to read this tab
guitar tuner
Tab Pro tools
  • play this tab
  • loop segment
  • change instrument
  • show fretboard
  • metronome
×
Best way to learn
"Love Like Woe"
Autoscroll
slow
fast
+/-
esc
set tempo
stop
Difficulty
novice
The Ready Set - Love Like Woe - Tabs By: Brandon Wilson - Jan. 26th, 2011

I hope you enjoy these tabs, it took me about 20 minutes to figure everything out. 
Give me some feedback on what I could maybe improve!

Tuning: 
Standard

LEGEND:
* = Palm Mute
(x8) = Strum 8 times
(x16) = Strum 16 times
(x32) = Strum 32 times

SONG STRUCTURE:
Intro
Verse
Post-Verse
Pre-Chorus
Chorus
Verse
Post-Verse
Pre-Chorus
Chorus
Bridge
Chorus (don't play first time)
Chorus



INTRO
[[------------------]]
[[------------------]]
[[----------8---10--]]
[[--8---5---8---10--]]
[[--8---5---6----8--]]
[[--6---3-----------]]

VERSE
[[--------------------------------------]]
[[--------------------------------------]]
[[--------------------8(x16)---10-------]]
[[--8(x16)---5(x16)---8--------10-------]]
[[--8--------5--------6---------8-------]]
[[--6--------3--------------------------]]
  **************************
[[-----------------------------------]]
[[-----------------------------------]]
[[-----------------------------------]]
[[--8-8-8-8-8-8-8-8-8-8-8-8-8-8-8-8--]]
[[--8-8-8-8-8-8-8-8-8-8-8-8-8-8-8-8--]]
[[--6-6-6-6-6-6-6-6-6-6-6-6-6-6-6-6--]]
    * *   *   * *   * *   * * *   *
[[-----------------------------------]]
[[-----------------------------------]]
[[-----------------------------------]]
[[--5-5-5-5-5-5-5-5-5-5-5-5-5-5-5-5--]]
[[--5-5-5-5-5-5-5-5-5-5-5-5-5-5-5-5--]]
[[--3-3-3-3-3-3-3-3-3-3-3-3-3-3-3-3--]]
    * *   *   * *   * *   * * *   *
[[-----------------------------------]]
[[-----------------------------------]]
[[--8-8-8-8-8-8-8-8-8-8-8-8-8-8-8-8--]]
[[--8-8-8-8-8-8-8-8-8-8-8-8-8-8-8-8--]]
[[--6-6-6-6-6-6-6-6-6-6-6-6-6-6-6-6--]]
[[-----------------------------------]]
    * *   *   * *   * *   * * *   *
[[------]]
[[------]]
[[--10--]]
[[--10--]]
[[---8--]]
[[------]]

POST-VERSE  
[[------------]]
[[------------]]
[[--10-10-10--]]
[[--10-10-10--]]
[[---8--8--8--]]
[[------------]]

PRE-CHORUS
[[------------------------------------]]
[[------------------------------------]]
[[--------------------8(x8)---10(x8)--]]
[[--8(x32)---5(x16)---8--------8------]]
[[--8--------5--------6--------8------]]
[[--6--------3------------------------]]

[[--------------]]
[[--------------]]
[[--------------]]
[[--5---5---10--]]
[[--3---3----8--]]
[[--3---3----8--]]
                  

CHORUS                       [---1st---]
[[--------------------------------------]]
[[--------------------------------------]]
[[--------------------8(x16)---10(x16)--]]
[[--8(x16)---5(x16)---8---------8-------]]
[[--8--------5--------6---------8-------]] (x2) 
[[--6--------3--------------------------]]
 
  [-2nd-]
[[------]]
[[------]]
[[--10--]]
[[---8--]]
[[---8--]]
[[------]]

BRIDGE
[[-------------------------------------------------]]
[[----------------------7---10---------10---15/17--]]
[[--7---10-----------------------7/8---------------]]
[[-----------7/8---10------------------------------]]
[[-------------------------------------------------]]
[[-------------------------------------------------]]
comments
We did not receive enough feedback on this tab! Please rate:
print report bad tab
1 2 3 4 5
I want to post or [tab]
guest
You may want to rate the tab now too:
select rating
Please do not post tabs as comments. Select "correction" instead!