Oops, an error
Loading. Please wait.

Planning A Prison Break bass

version 1
version 1

Whole song

Interactive

2,224 views 1 this week
3 commentsread comments
1 2 3 4 5
1 last vote to show rating
add to favorites
×
Save as Personal and add changes to this tab that will be seen only by you. Learn more ›
×
You can save this tab as Personal to edit and correct it or add notes. All changes will be seen only by you. Learn more »
launch autoscroll
font size
0
reset
guitar tuner
edit
Autoscroll
slow
fast
+/-
esc
set tempo
stop
Author
Difficulty
The Receiving End Of Sirens
Planning A Prison Break
Between The Heart And The Synapse
Tuning; CGCF
Tabbed by; Carlson2000

Note: Well, I noticed its never been tabbed. And I had a basic idea for the song. So I 
sat down, and
decided to get this baby over and done with. I think its about 90% right. Theres a few fills im not sure
on but its better than nothing eh folks? Enjoy!

Intro - No bass until 00:20
=====
-----------------------------------|
-----------------------------------|
--88---88---88---88----88----88----|
-----0----0----0----0-----00----0--|

----------------------|
----------------------|
--77---77---77---77---|
-----0----0----0----0-|

----------|
----------|
----------|
-8-5-3-0~-|

Verse
=====
-10---7-9--    ---------|
----8------    ---------|
----------- x4 -7---5-7-| x4
-----------    ---7-----|

then;                      ___
---------      ---------|
---------      ---------|
-8---5-7- x4   -7---5-7-| x4    / x2
---8-----      ---7-----|   ___/

---------------------------------------|
---------------------------------------|
---------------/8-/8-------------------|
-12-12//---333--------3--00---77777777-|

Chorus
======
-------------------------------|
-------------------------------|
-8----8----8----7----7----7777-|
---0----0----0----0-----0------|

------------------------------------------------------------------|
------------------------------------------------------------------|
----------555555-----------555555---------------------------------|
-0-00-00----------0-00-00---------7-77-7-7777777--8-88-8--33333-0-|

-----------------------------------------------------|
-----------------------------------------------------|
----------555555-----------555555--------------------|
-0-00-00----------0-00-00---------7-77-7-7777777--8/-|

2nd Verse
=========
---------------------------------------------------|
-----------------------------------3-----2-3-----2-|
-55-55---55-55---55/--------11-11----0-5-----0-5---|
---------------------33-33-------------------------|

--------------------------------------------------------------------------------------|
--------------------------------------------------------------------------------------|
-55-55--8--5-7-8--5-7---55-55---8---5-7-8--5-7---55//--------11-11--------------------|
----------7------7----------------7-------7-----------33-33-----------1-0-1-0-1-0-1-0-|

Chorus 2
========
-******************--------------------------|
-*rest until 02:17*--------------------------|
-*----------------*--------------------------|
-******************-15/--7-77-777-8-88-88888-|

-----------------------------------------------------|
-----------------------------------------------------|
----------555555-----------555555--------------------|
-0-00-00----------0-00-00---------7-77-7-7777777--8/-|

Breakdown
=========
-------------------------------------------------------------------|
-------------------------------------------7-5---------------------|
-----------------------------------------------5-------------------|
-00-00000-00000--00-00000-00000--00-00000-(00000)--00-00000-000000-|

--------------------------------------------------------------------------------------------------|
--------------------------------------------------------------------------------------------------|
-555555555555-8---5-7-8---5-7--555555555555-8---5-7-8---5-7---333333333333------------------------|
----------------7-------7---------------------7-------7--------------------777777-888888-10101010-|

--------------------------------------------------------------------------------------------------|
--------------------------------------------------------------------------------------------------|
-555555555555-8---5-7-8---5-7--555555555555-8---5-7-8---5-7---333333333333------------------------|
----------------7-------7---------------------7-------7--------------------777777-888888-10101010-|

Outro Pt.1
==========
--------------------------------------------------------------------------------------|
--------------------------------------------------------------------------------------|
--------------------------------------------------------------------------------------| x2
-3333333333333333-777777777777777777-88888888888888888888888-1010/5555555555555555555-|

----------------------|
----------------------|
-8~-------------------|
-----7~--8~--/10//17~-|

Outro Pt.2 x2
==========
------------------------------------------------------------------|
------------------------------------------------------------------|
-8-8-8-8-8-8-8-8-8-8-8-8-8-8-8-8/---------------------------------|
----------------------------------7-7-7-7-7-7-7-7-7-7-7-7-7-7-7-7-|

------------------------------------------------------------------|
------------------------------------------------------------------|
------------------------------------------------------------------|
-8-8-8-8-8-8-8-8-8-8-8-8-8-8-8-8/-5-5-5-5-5-5-5-5-5-5-5-5-5-5-5-5-|

            
            
Suggest correction
Creating personal tab
Creating personal tab
You can edit any tab online and save it as your Personal.

You can edit, replace or remove any tab part or add personal notes – all changes will be seen only by you.

Personal tabs can be accessed anytime from any device, even offline.
Learn more »
Give kudos to tab author, rate the tab!
1 2 3 4 5
comments
print report bad tab
3 comments total.
0 reply
SaintJimmy105 341 May 24, 2006 11:36 AM

Great job. There might be a couple of things wrong, but considering this is a decently tough song to figure out, you did a good job with it.

0 reply
blinkrocks 127 Aug 08, 2006 01:16 PM

how the heck do you tune your e string to a c without it being lose?

0 reply
turbo474 172 Sep 08, 2006 04:34 PM

get thicker strings.

guest
You may want to rate the tab now too:
select rating
Wanna post a correction for this tab? Suggest correction